Song name
# A B C D E F G H I J K L M N O P Q R S T U V W X Y Z

Superstitions Of The Sky - Summary And Solutions tab

Superstitions of the Sky- Summary and Solutions

http://www.myspace.com/superstitionsofthesky 
This band is so good hopefully some more people will tab some songs out.

Intro/Verse
e|-----------------------------|
b|-----------------------------|
g|----7-----7-----6-----6------|
d|-----------------------------|
a|-----------------------------|
e|-77----77----77----77--------|

e|----------------------------------------|
b|----------------------------------------|
g|-----7-----7------7/9--9/11-11/12--12---|
d|------------------0----0----0-------0---|
a|--00---00-----00------------------------|
e|----------------------------------------|

e|------------------------------|
b|------------------------------|
g|----2-------------------------|
d|----0------5----2-----4----4--|
a|------------------------------|
e|-33----33----33----33---33----|

e|-------------------------------|
b|-------------------------------|
g|----2--------------------------|
d|----0------5----2/4-4/5-5/7-7--|
a|-------------------------------|
e|-33----33----33----------------|


Then
e|-----------------------------|
b|-----------------------------|
g|----7-----7-----6-----6------|
d|-----------------------------|
a|-----------------------------|
e|-77----77----77----77--------|

e|----------------------------------------|
b|----------------------------------------|
g|-----7-----7------7----9----7---6-------|
d|------------------0----0----0---0-------|
a|--00---00-----00------------------------|
e|----------------------------------------|

e|------------------------------|
b|------------------------------|
g|----2-------------------------|
d|----0------5----2-----4----4--|
a|------------------------------|
e|-33----33----33----33---33----|

e|-------------------------------|
b|-------------------------------|
g|----2--------------------------|
d|----0------5----2/4-4/5-5/7-7--|
a|-------------------------------|
e|-33----33----33----------------|


Chorus type thing

 |----this part X2---|
e|-------------------|--3333-2222-0000-0000-|--3333-2222-0000-0000-|-323232222-323232222-----|
b|-------------------|--0000-0000-0000-3333-|--0000-0000-0000-3333-|-000000000-000000000-----|
g|-6-7--6-7--6-7-7-7-|--0000-0000-0000-0000-|--0000-0000-0000-0000-|-000000000-000000000-----|
d|-0-0--0-0--0-0-0-0-|--0000-0000-0000-0000-|--0000-0000-0000-0000-|-000000000-000000000-----|
a|-0-0--0-0--0-0-0-0-|--0000-0000-0000-0000-|--0000-0000-0000-0000-|-000000000-000000000-----|
e|-7-7--7-7--7-7-7-7-|----------------------|--3333-3333-3333-3333-|-333333333-333333333-----|

 |----this part X2---|
e|-------------------|--3333-2222-0000-0000-|--323232222-323232222-|-5555333322220000-----|
b|-------------------|--0000-0000-0000-3333-|--000000000-000000000-|-0000000000000000-----|
g|-6-7--6-7--6-7-7-7-|--0000-0000-0000-0000-|--000000000-000000000-|-0000000000000000-----|
d|-0-0--0-0--0-0-0-0-|--0000-0000-0000-0000-|--000000000-000000000-|-0000000000000000-----|
a|-0-0--0-0--0-0-0-0-|--0000-0000-0000-0000-|--000000000-000000000-|-0000000000000000-----|
e|-7-7--7-7--7-7-7-7-|----------------------|--333333333-333333333-|-3333333333333333-----|


  
Intro/Verse
e|-----------------------------|
b|-----------------------------|
g|----7-----7-----6-----6------|
d|-----------------------------|
a|-----------------------------|
e|-77----77----77----77--------|

e|----------------------------------------|
b|----------------------------------------|
g|-----7-----7------7/9--9/11-11/12--12---|
d|------------------0----0----0-------0---|
a|--00---00-----00------------------------|
e|----------------------------------------|

e|------------------------------|
b|------------------------------|
g|----2-------------------------|
d|----0------5----2-----4----4--|
a|------------------------------|
e|-33----33----33----33---33----|

e|-------------------------------|
b|-------------------------------|
g|----2--------------------------|
d|----0------5----2/4-4/5-5/7-7--|
a|-------------------------------|
e|-33----33----33----------------|


Then
e|-----------------------------|
b|-----------------------------|
g|----7-----7-----6-----6------|
d|-----------------------------|
a|-----------------------------|
e|-77----77----77----77--------|

e|--------------------------------------|
b|--------------------------------------|
g|-----7-----7------6-----7-----6-------|
d|--------------------------------------|
a|--00----00----00----00----00----------|
e|--------------------------------------|

e|------------------------------|
b|------------------------------|
g|----2-------------------------|
d|----0------5----2-----4----4--|
a|------------------------------|
e|-33----33----33----33---33----|

e|-------------------------------|
b|-------------------------------|
g|----2--------------------------|
d|----0------5----2/4-4/5-5/7-7--|
a|-------------------------------|
e|-33----33----33----------------|

Chorus basically the same with a little variation at the end

 |----this part X2---|
e|-------------------|--3333-2222-0000-0000-|--3333-2222-0000-0000-|-323232222-323232222--|
b|-------------------|--0000-0000-0000-3333-|--0000-0000-0000-3333-|-000000000-000000000--|
g|-6-7--6-7--6-7-7-7-|--0000-0000-0000-0000-|--0000-0000-0000-0000-|-000000000-000000000--|
d|-0-0--0-0--0-0-0-0-|--0000-0000-0000-0000-|--0000-0000-0000-0000-|-000000000-000000000--|
a|-0-0--0-0--0-0-0-0-|--0000-0000-0000-0000-|--0000-0000-0000-0000-|-000000000-000000000--|
e|-7-7--7-7--7-7-7-7-|----------------------|--3333-3333-3333-3333-|-333333333-333333333--|

 
e|---------------------------|--5555-5555-3333-2222-|--000000000-000000000-|-000000000-00000000--|
b|-1010101010101010-88887777-|--0000-0000-0000-0000-|--323232222-323232222-|-323232222-55553322--|
g|--0-0-0-0-0-0-0-0-00000000-|--0000-0000-0000-0000-|--000000000-000000000-|-000000000-00000000--|
d|--0-0-0-0-0-0-0-0-00000000-|--0000-0000-0000-0000-|--000000000-000000000-|-000000000-00000000--|
a|--0-0-0-0-0-0-0-0-00000000-|--0000-0000-0000-0000-|--000000000-000000000-|-000000000-00000000--|
e|--7-7--7-7--7-7-7-77777777-|----------------------|--333333333-333333333-|-333333333-33333333--|

Outro
e|-----------------------------|
b|-----------------------------|
g|----7-----7-----6-----6------|
d|-----------------------------|
a|-----------------------------|
e|-77----77----77----77--------|

e|----------------------------------------|
b|----------------------------------------|
g|-----7-----7------7/9--9/11-11/12--12---|
d|------------------0----0----0-------0---|
a|--00---00-----00------------------------|
e|----------------------------------------|

Tap to rate this tab
 
# A B C D E F G H I J K L M N O P Q R S T U V W X Y Z