Song name
# A B C D E F G H I J K L M N O P Q R S T U V W X Y Z

Supersubmarina - En Mis Venas tab

Transcrita Por: SitoSito Alban

Afiancion: Estandar E

Introducción   2x
e|-------------------------------------------------------------------------|
B|-------------------------------------------------------------------------|
G|------9~---------9~--------9~---------9~---------------------------------|
D|--10---------9---------9---------9---------------------------------------|
A|-8--8----------------0---0-----------------------------------------------|
E|-----------10--10-------------10---10------------------------------------|

Verso 3x

e|-------------------------------------------------------------------------|
B|-------------------------------------------------------------------------|
G|--------9------9-----9-------------9-----9-----9------------9---9---9----|
D|---10-----10-----10----10------10---10----10----10------10---10--10--10--|
A|-8----8------8-----8------8---------------------------0----0---0---0---0-|
E|-----------------------------10--10---10----10----10---------------------|

e|-------------------------------------------------------------------------|
B|-------------------------------------------------------------------------|
G|--------9------9-----9---------------------------------------------------|
D|---10-----10-----10----10------------------------------------------------|
A|-------------------------------------------------------------------------|
E|-10--10-----10-----10----10----------------------------------------------|



Pre Coro x2
e|-----------------------------------------------------------------------------|
B|-----------------------------------------------------------------------------|
G|-----------------------------------------------------------------------------|
D|----------------9-----10-----------------------------------------------------|
A|----10----10----7-x7--8-x7---------------------------------------------------|
E|----8-x7--7-x7---------------------------------------------------------------|
Coro x2
e|----------------------------------------------------------------------------|
B|----------------------------------------------------------------------------|
G|---------------------5-------10---------------------------------------------|
D|---3---------5-------5-------10---------------------------------------------|
A|---3---------5-------3-------8----------------------------------------------|
E|---1---------3-------3-------8----------------------------------------------|
Tap to rate this tab
# A B C D E F G H I J K L M N O P Q R S T U V W X Y Z