Song name
# A B C D E F G H I J K L M N O P Q R S T U V W X Y Z

Supersuckers - I Like It All Man tab

Tune down half step, D#, G#, C#, F#, A#, D#, listen to song for rhythm

D#---------------------------------------------------------------|
A#---------------------------------------------------------------|
F#----------4-------------------------------------------------4--|
C#----------4-----------------2---------------4---------------4--|
G#----------2-----------------2---------------4---------------2--|
D#----------------------------0---------------2------------------|
  I like it all man I like to pull, I like to push, I like it all
  I like it all man I like the tits,I like the tush, I like it all
  I like em skinny ill take em heavy I like a ford but Ill take a chevy
  I like it all man i like it all man i like it all man i like it all!

D#------------------------------------------------|
A#------------------------------------------------|
F#------------------------------------------------|
C#-6-----------4------------2------------44444444-|
G#-6-----------4------------2------------44444444-|
D#-4-----------2------------0------------22222222-|

Rinse & repeat!
Tap to rate this tab
# A B C D E F G H I J K L M N O P Q R S T U V W X Y Z