Guitaretab - guitar tabs
Song name
# A B C D E F G H I J K L M N O P Q R S T U V W X Y Z

Supersuckers - Gato Negro tab

tune half step down, listen for rhythm

Main riff
E---------------|
B---------------|
G-------7---7---|
D---9-5-7-7-7-7-|
A---9-5-5-7-5-7-|
E---7-3---5---5-|
[ Tab from: http://www.guitaretab.com/s/supersuckers/117015.html ]
Bridge
E-------------------------------|
B-------------------------------|
G---------------------------7---|
D---9999-9999-5-7-9999-9999-7-7-|
A---9999-9999-5-7-9999-9999-5-7-|
E---7777-7777-3-5-7777-7777---5-|

Chorus
E-----------------------------------|
B-----------------------------------|
G---------------------------7-7-----|
D---9-9-9-9-9-9-9-9-5-5-5-5-7-7-7-7-|
A---9-9-9-9-9-9-9-9-5-5-5-5-5-5-7-7-|
E---7-7-7-7-7-7-7-7-3-3-3-3-----5-5-|

Rock it
Related for Gato Negro tab
Gato Negro chords by Supersuckers