Song name
# A B C D E F G H I J K L M N O P Q R S T U V W X Y Z

Supersuckers - Creepy Jackalope Eye tab

You figure out the rhythm!

Intro/Verse
E-----------|
B-----------|
G---5-7---7-|
D---5-7-7-7-|
A---3-5-7-5-|
E-------5---|


Chorus
E-----------|
B-----------|
G-------3---|
D---3-6-5-3-|
A---3-6-3-3-|
E---1-4---1-|


Switch it back and forth between these 2 and you have the song!

My tab needs more symbols
Tap to rate this tab
# A B C D E F G H I J K L M N O P Q R S T U V W X Y Z