Song name
# A B C D E F G H I J K L M N O P Q R S T U V W X Y Z

Supersuckers - How To Maximize Your Kill Count tab

Listen to the song for real rhythm, its a little tricky

Riff A
E----------------------------------|
B----------------------------------|
G------------7---5---5-5-5-5-------|
D---7---7-7-X7---5---5-5-5-5-5-5-6-|
A---7---7-7-X5---3---3-3-3-3-5-5-6-|
E---5---5-5-X----------------3-3-4-|

Riff B
E-----------------------------------|
B-----------------------------------|
G---5---5-5-5-5-5-7---7-7-7-7-------|
D---5---5-5-5-5-5-7---7-7-7-7-5-5-6-|
A---3---3-3-3-3-3-5---5-5-5-5-5-5-6-|
E-----------------------------3-3-4-|

Riff C
E-----------------------------------|
B-----------------------------------|
G-----------7-5-------------5-------|
D---7---7---7-5---5---5-5-5-5-5---3-|
A---7---7---5-3---5---5-5-5-3-5---3-|
E---5---5---------3---3-3-3---3---1-|

Arrangment:

Riff A x 6
Riff B x 1
Riff A x 8
Riff B x 1
Riff C x 1
Riff A x 6
Riff B x 1
Riff C x 1
Riff A to fade out

Rock & roll!  Pursue Awesomology!

Tap to rate this tab
# A B C D E F G H I J K L M N O P Q R S T U V W X Y Z