Song name
# A B C D E F G H I J K L M N O P Q R S T U V W X Y Z

Supersuckers - Good Old Boys tab

Title: Good Old Boys
Artist: Supersuckers
Words: Waylon Jennings
Music: Waylon Jennings
Tabber: Lucky Duju
Tempo = 180
Steel Guitar

Legend
L - tied note
x - dead note
h - hammer on/pull off
b - bend
s - slide
~ - vibrato
g - ghost note
> - accentuated note
t - trill
M - palm mute
. - staccato
P - popping (bass)
S - slapping (bass)
+ - tapping
W - wide vibrato
< - fade in
w - whammy bar
= - tremolo picking
v - brush up
^ - brush down
V - pick stroke up
n - pick stroke down


E |--1--1--1--1--1-------------|--1--1--1--1--1-------------|
B |--1--1--1--1--1-------------|--1--1--1--1--1-------------|
G |-----------------3--1-------|-----------------3--1-------|
D |-----------------------3----|-----------------------3----|
A |----------------------------|----------------------------|
E |----------------------------|----------------------------|


----------------------------|----------------------------|
--1-----------1-------------|--1--1--1--1--1--1--1--1----|
-----3--1--------3--1-------|--3--3--3--3--3--3--3--3----|
-----------3-----------3----|----------------------------|
----------------------------|----------------------------|
----------------------------|----------------------------|


----------------------------|----------------------------|
--------------1--1--1--1----|----------------------------|
--3b-1-----1--3--3--3--3----|--3b-1----------------------|
--------3-------------------|--------3--1-----------3L---|
----------------------------|--------------1--2--3-------|
----------------------------|----------------------------|


----------------------------|----------------------------|
----------------------------|----------------------------|
----------------------------|-----1b---------------------|
--3--3--------1--------3L---|--3--------3s----------1s---|
--------2h-3-----2h-3-------|----------------------------|
----------------------------|----------------------------|


----------------------------|----------------------------|
--------------1-------------|----------------------------|
--------------0-------------|----------------------------|
--------2h-3----------------|-----------3----------------|
--2h-3----------------------|--2h-3s-5-----5s-3----------|
----------------------------|--------------------1-------|


----------------------------|-------|----------------------------|
----------------------------|-------|----------------------------|
----------------------------|-------|-----2-----2-----2--x--x----|
-----------------3----------|-------|-----3-----3--x--3--x--x----|
--------1--2--3-------------|-------|--3--3--x--3--x--3--x--x----|
--1--4----------------------|-------|--1-----x-----x-----x--x----|


----------------------------|----------------------------|
----------------------------|--3--3--x--3--x--3--x--x----|
-----2-----2-----2-----2----|--3--3--x--3--x--3--x--x----|
-----3--x--3-----3--x--3----|--3--3--x--3--3--3--x--x----|
--3--3--x--3--x--3--x--3----|--1--1--x--1--1--1--x--x----|
--1-----x-----x-----x-------|----------------------------|


----------------------------|----------------------------|
--x--3--x--3--x--3--x--3----|----------------------------|
--x--3--x--3--x--3--x--3----|-----2-----2-----2-----2----|
--3--3--x--3--x--3--3--3----|-----3--x--3-----3--x--3----|
--1--1--x--1--x--1--1--1----|--3--3--x--3--x--3--x--3----|
----------------------------|--1-----x-----x-----x-------|


----------------------------|----------------------------|
--5--5--x--5--x--5--x--5----|--5--5--x--5----------------|
--5--5--x--5--x--5--x--5----|--5--5--x--5--2--2-----2----|
--5--5--x--5--x--5--x--5----|--5--5--x--5--3--3--x--3----|
--3--3--x--3--x--3--x--3----|--3--3--x--3--3--3--x--3----|
----------------------------|--------------1--1--x--1----|


----------------------------|----------------------------|
----------------------------|----------------------------|
--x--2--x--2--2--2--x--2----|-----2-----2-----2--x--x----|
--x--3--x--3--3--3--x--3----|-----3-----3--x--3--x--x----|
--x--3--x--3--3--3--x--3----|--3--3--x--3--x--3--x--x----|
--x--1--x--1--1--1--x--1----|--1-----x-----x-----x--x----|


----------------------------|----------------------------|
----------------------------|----------------------------|
-----2-----2-----2-----2----|-----2-----2-----2--x--x----|
-----3--x--3-----3--x--3----|-----3--x--3-----3--x--x----|
--3--3--x--3--x--3--x--3----|--3--3--x--3--x--3--x--x----|
--1-----x-----x-----x-------|--1-----x-----x-----x--x----|


----------------------------|----------------------------|
--x--3--x--3--x--3--x--3----|----------------------------|
--x--3--x--3--x--3--x--3----|-----2-----2-----2-----2----|
--3--3--x--3--x--3--3--3----|-----3--x--3-----3--x--3----|
--1--1--x--1--x--1--1--1----|--3--3--x--3--x--3--x--3----|
----------------------------|--1-----x-----x-----x-------|


----------------------------|----------------------------|
--5--5--x--5--x--5--x--5----|----------------------------|
--5--5--x--5--x--5--x--5----|-----2-----2-----2--x--x----|
--5--5--x--5--x--5--x--5----|-----3-----3--x--3--x--x----|
--3--3--x--3--x--3--x--3----|--3--3--x--3--x--3--x--x----|
----------------------------|--1-----x-----x-----x--x----|


----------------------------|----------------------------|
----------------------------|--5--5--x--5--x--5--x--5----|
-----2-----2-----2-----2----|--5--5--x--5--x--5--x--5----|
-----3--x--3-----3--x--3----|--5--5--x--5--x--5--x--5----|
--3--3--x--3--x--3--x--3----|--3--3--x--3--x--3--x--3----|
--1-----x-----x-----x-------|----------------------------|


----------------------------|----------------------------|
--5--5--x--5--x--5--x--5----|--5--5--x--5--x--5--x--5----|
--5--5--x--5--x--5--x--5----|--5--5--x--5--x--5--x--5----|
--5--5--x--5--x--5--x--5----|--5--5--x--5--x--5--x--5----|
--3--3--x--3--x--3--x--3----|--3--3--x--3--x--3--x--3----|
----------------------------|----------------------------|


----------------------------|----------------------------|
--5--5--x--5--x--5--x--5----|--5--5--x--5--x--5--x--5----|
--5--5--x--5--x--5--x--5----|--5--5--x--5--x--5--x--5----|
--5--5--x--5--x--5--x--5----|--5--5--x--5--x--5--x--5----|
--3--3--x--3--x--3--x--3----|--3--3--x--3--x--3--x--3----|
----------------------------|----------------------------|


----------------------------|----------------------------|
--5--5--x--5--x--5--x--5----|----------------------------|
--5--5--x--5--x--5--x--5----|-----2-----2-----2--x--x----|
--5--5--x--5--x--5--x--5----|-----3-----3--x--3--x--x----|
--3--3--x--3--x--3--x--3----|--3--3--x--3--x--3--x--x----|
----------------------------|--1-----x-----x-----x--x----|


----------------------------|----------------------------|
----------------------------|----------------------------|
-----2-----2-----2-----2----|----------------------------|
-----3--x--3-----3--x--3----|----------------------------|
--3--3--x--3--x--3--x--3----|--0--3--3--0--3--3--2--3----|
--1-----x-----x-----x-------|----------------------------|


----------------------------|----------------------------|
----------------------------|----------------------------|
-----------3--------3-------|--------------0-----3--0----|
--3--------3--------3--0----|--3-----0--3s----3----------|
-----2--3-------------------|----------------------------|
----------------------------|----------------------------|


----------------------------|----------------------------|
-----1s-3--6--6--3--6h-6h---|--5h-3--------------6-------|
--3-------------------------|-----------5--7--5-----7----|
----------------------------|--------7s------------------|
----------------------------|----------------------------|
----------------------------|----------------------------|


-----------8-----17-16-15---|--13-------13----17-16-15---|
--6s-8--10----10------------|--------15----15------------|
----------------------------|----------------------------|
----------------------------|----------------------------|
----------------------------|----------------------------|
----------------------------|----------------------------|


--13-------------13----13---|--12s13-13-------13----13---|
--------------15----15------|--12s13-13-15-13----15------|
--------13s14---------------|----------------------------|
----------------------------|----------------------------|
----------------------------|----------------------------|
----------------------------|----------------------------|


--12s13-13-------13----13---|-----13----15----13---------|
--12s13-13-15-13----15------|--13s---15----------13b13b--|
----------------------------|----------------------------|
----------------------------|----------------------------|
----------------------------|----------------------------|
----------------------------|----------------------------|


--13s13-------13----13s-----|----------------------------|
--13s13-15-13----15-13s-----|-----10-11-12-13------------|
----------------------------|--12s------------12b---10---|
----------------------------|----------------------------|
----------------------------|----------------------------|
----------------------------|----------------------------|


----------------------------|-------|----------------------------|
-----------10---------------|-------|----------------------------|
--10-12-10----12L12b10s-----|-------|-----2-----2-----2--x--x----|
----------------------------|-------|-----3-----3--x--3--x--x----|
----------------------------|-------|--3--3--x--3--x--3--x--x----|
----------------------------|-------|--1-----x-----x-----x--x----|


----------------------------|----------------------------|
----------------------------|--3--3--x--3--x--3--x--x----|
-----2-----2-----2-----2----|--3--3--x--3--x--3--x--x----|
-----3--x--3-----3--x--3----|--3--3--x--3--3--3--x--x----|
--3--3--x--3--x--3--x--3----|--1--1--x--1--1--1--x--x----|
--1-----x-----x-----x-------|----------------------------|


----------------------------|----------------------------|
--x--3--x--3--x--3--x--3----|----------------------------|
--x--3--x--3--x--3--x--3----|-----2-----2-----2-----2----|
--3--3--x--3--x--3--3--3----|-----3--x--3-----3--x--3----|
--1--1--x--1--x--1--1--1----|--3--3--x--3--x--3--x--3----|
----------------------------|--1-----x-----x-----x-------|


----------------------------|----------------------------|
--5--5--x--5--x--5--x--5----|--5--5--x--5----------------|
--5--5--x--5--x--5--x--5----|--5--5--x--5--2--2-----2----|
--5--5--x--5--x--5--x--5----|--5--5--x--5--3--3--x--3----|
--3--3--x--3--x--3--x--3----|--3--3--x--3--3--3--x--3----|
----------------------------|--------------1--1--x--1----|


----------------------------|----------------------------|
----------------------------|----------------------------|
--x--2--x--2--2--2--x--2----|-----2-----2-----2--x--x----|
--x--3--x--3--3--3--x--3----|-----3-----3--x--3--x--x----|
--x--3--x--3--3--3--x--3----|--3--3--x--3--x--3--x--x----|
--x--1--x--1--1--1--x--1----|--1-----x-----x-----x--x----|


----------------------------|----------------------------|
----------------------------|----------------------------|
-----2-----2-----2-----2----|-----2-----2-----2--x--x----|
-----3--x--3-----3--x--3----|-----3--x--3-----3--x--x----|
--3--3--x--3--x--3--x--3----|--3--3--x--3--x--3--x--x----|
--1-----x-----x-----x-------|--1-----x-----x-----x--x----|


----------------------------|----------------------------|--1-------------|
--3--3--x--3--x--3--x--x----|--x--3--x--3--x--3--x--3----|--1-------------|
--3--3--x--3--x--3--x--x----|--x--3--x--3--x--3--x--3----|--2-------------|
--3--3--x--3--3--3--x--x----|--3--3--x--3--x--3--3--3----|--3-------------|
--1--1--x--1--1--1--x--x----|--1--1--x--1--x--1--1--1----|--3-------------|
----------------------------|----------------------------|--1-------------|


--3-------------|--1----|--1----||
--5-------------|--1----|--1----||
--5-------------|--2----|--2----||
--5-------------|--3----|--3----||
--3-------------|--3----|--3----||
----------------|--1----|--1----||

Tap to rate this tab
# A B C D E F G H I J K L M N O P Q R S T U V W X Y Z