Guitaretab - guitar tabs
Song name
# A B C D E F G H I J K L M N O P Q R S T U V W X Y Z

Supertones - Jury Duty tab

          Author/Artist: Supertones
          Title: Jury Duty
          Album: Chase the Sun
          Transcribed by: Dominic "Let's go Bowling" Greco
          Email: misterj13@hotmail.com
          
          ------------------------------------|-----------------------------------------
          -3---3-3-3---3-3-3--2-2-2-2--2-2-2-2|-----------------------------------------
          -2---2-2-2---2-2-2--4-4-4-4--2-2-2-2|--6/7-7--6/7-7---------------------------
          -2h4-4-4-4---4-4-4--4-4-4-4--2-2-2-2|--6/7-7--6/7-7--7/9-9--7/9-9--5-7-7------
          -5---5-5-5---5-5-5--2-2-2-2--0-0-0-0|--4/5-5--4/5-5--7/9-9--7/9-9--5-7-7------
          ------------------------------------|----------------5/7-7--5/7-7--3-5-5------
                   clean intro                   w/ dist                                
          
          ------|-------------------------------------|---------------------------------
          ------|-------------------------------------|---------------------------------
          ------|-7----------------4------------------|---------------------------------
          -5-7-7|-7----------------4----------5-5--7-7|--5-5-5-5--9-9-9-9--7-7-7-7--7---
          -5-7-7|-5-5-5-5-5-5-5-5--2-2-2-2-2--5-5--7-7|--5-5-5-5--9-9-9-9--7-7-7-7--7---
          -3-5-5|-----------------------------3-3--5-5|--3-3-3-3--7-7-7-7--5-5-5-5--5---
                    Pm...........    .......            pre chorus                      
          
          ------|-------|---7--|---10p9p7-----------------------------------------------
          ------|-------|---7--|----------10p9p7----------------------------------------
          ------|-----9-|9b----|-----------------10p9p7--9b-9b-9b-----------------------
          -7-7-7|-7-9---|------|--------------------------------------------------------
          -7-7-7|-------|------|--------------------------------------------------------
          -5-5-5|-------|------|--------------------------------------------------------
                         repeat
[ Tab from: http://www.guitaretab.com/s/supertones/44175.html ]
Related for Jury Duty tab
Advertisement will be closed in 10 seconds