Song name
# A B C D E F G H I J K L M N O P Q R S T U V W X Y Z

Supertramp - School tab

Supertramp
School
Tabbed by Sebariath

There is a pretty accurate tab for this song on this site but i think there
are a few corrections to be made... I may be wrong. Check the Live In Toronto version on youtube.

Intro (I can see you...) 0:47

----8--------8-------3-----3------7-10-7-------1----1----
-----10-10----10------5-----5------8--8-8-------1----1---
---9---9----9---9---4--4--4--4---7-------7----2--2-2--2-- (x2)
-10-------10-------5-----5------9---------9--3----3------
---------------------------------------------------------
---------------------------------------------------------

Intro 1:11

--------------------
-----5-7-------5-3--
----5--7------5--4-- (x2)
-5h7---7---5h7---5--
-------5------------
--------------------

Verse 1:45

-8--8--8--8--x-x-x-x------3-3-3-3-x-x-x-x------7-7-7-7-x-x-x-x------
-10-10-10-10-x-x-x-x-(x2)-5-5-5-5-x-x-x-x-(x2)-8-8-8-8-x-x-x-x-(x2)-
-9--9--9--9--x-x-x-x------4-4-4-4-x-x-x-x------7-7-7-7-x-x-x-x------
-10-10-10-10-x-x-x-x------5-5-5-5-x-x-x-x------9-9-9-9-x-x-x-x------
-------------x-x-x-x--------------x-x-x-x--------------x-x-x-x------
-------------x-x-x-x--------------x-x-x-x--------------x-x-x-x------

-1-1-1-1-x-x-x-x------         -0--0-0--0---------------
-1-1-1-1-x-x-x-x-(x2)-         -1--1-1--0-(Let it ring)-
-2-2-2-2-x-x-x-x------ (x2)    -0--0-0--1---------------
-3-3-3-3-x-x-x-x------         -2--2-2--2---------------
---------x-x-x-x------         -3--3-3--2---------------
---------x-x-x-x------         ---------0---------------

Solo 1 2:21

---17---------------------------------------------------------------------
-17------17-20-17---13b15-13---------------------9h10-10-10-10-10-10-10---
-------------------------------14\12--5b7r5---4---------------------------
--------------------------------------------------------------------------
--------------------------------------------------------------------------
--------------------------------------------------------------------------

Interlude W/Keyboard 2:44

----7-8-10------------7-8-----
---8------8-8-----8h10---7-7--
--9--------------9------------
-7--------------7-------------
------------------------------
------------------------------

Piano Solo 3:16
Acoustic chords used

Am Em G F

(Dont do this...) 4:18

-----------------------------------
-----------------------------------
--------2-4-5----2-7---5-7-9--(x2)-
-2-4-6--2-4-5----2-7---5-7-9-------
-2-4-6--0-2-3----0-5---3-5-7-------
-0-2-4-----------------------------

Mini Solo  4:41

---17p16--19--17-16--19--
-17-----17---------17----
-------------------------
-------------------------
-------------------------
-------------------------

End verse 4:48 (Same as first verse)

Ending 5:19

-----0------------2--
----0-1-3-1-3-1-3-3--
-2-------0---0-------
-2-------------------
-0-------------------
---------------------

Ipswich for relegation, THFC FOREVER!!!
Tap to rate this tab
 
# A B C D E F G H I J K L M N O P Q R S T U V W X Y Z