Song name
# A B C D E F G H I J K L M N O P Q R S T U V W X Y Z

Supertramp - Crime Of The Century tab

My interpretation of the guitar solo in Supertramp's "Crime Of The Century." There's not 
lot of guitar parts in the song, but this has got one of my favorite "breakdowns" ever. 
rate, and comment!

v = vibrato
/ = slide up
\ = slide down
b = bend
r = release bend
h = hammer-on
p = pull-off

|17vvvv--------------------------------------------------------------------|
|----------------------------------12-------------------------10-----------|
|-------------/14v------16b(17)--------14--12-14p12------7/9-----9---------|
|--------5/7----------------------------------------14--------------10/12--|
|--------------------------------------------------------------------------|
|--------------------------------------------------------------------------|

|--------------------------15-------20----19-----17----19-17-19-20-----19--|
|15-15vvvv-----13h15-15/17------17-----17-----17--------------------17-----|
|-----------14-------------------------------------------------------------|
|--------------------------------------------------------------------------|
|--------------------------------------------------------------------------|
|--------------------------------------------------------------------------|

|---17-------------------------------------------------|
|17------20b(22)r20-17\15------------------------------|
|-------------------------------16-16/17---(19)r17-16--|
|---------------------------19-------------------------|
|------------------------------------------------------|
|------------------------------------------------------|
Tap to rate this tab
 
# A B C D E F G H I J K L M N O P Q R S T U V W X Y Z