Song name
# A B C D E F G H I J K L M N O P Q R S T U V W X Y Z

Supertramp - Even In The Quietest Moments tab

supertramp - even in the quietest moments

here it is.


---------7--7-------/---------7--5----/---------5-------/---------3---------|
-------8------8-----/----5----------5-/-----7-----7-----/-----3------3------|
-----7----------7---/-------6---------/-------5-----5---/-------4------4----|
---0----------------/-0---------------/--0--------------/---0---------------|
--------------------/-----------------/-----------------/-------------------|
--------------------/-----------------/-----------------/-------------------|

---------5-------/----------3--------/--------3-----------/
-----7-----7-----/-----3-------3-----/----3------3--------/
-------5-----5---/-------4------4----/------3------3------/
--0--------------/---0---------------/--0-----------------/
-----------------/-------------------/--------------------/
-----------------/-------------------/--------------------/
Tap to rate this tab
# A B C D E F G H I J K L M N O P Q R S T U V W X Y Z