Song name
# A B C D E F G H I J K L M N O P Q R S T U V W X Y Z

Supertramp - You Started Laughing tab

INTRO/OUTRO

e -------------------------------------------------------------------|
B -------------------------------------------------------------------|
G ----9~------9-----9-7~----7-----7-6~--------9~------9-----9-7~-----|
D 6/7-----6/7---7-------------------------6/7-----6/7---7------------|
A ----------------9-------9---9-7-------------------------9----------|
E -------------------------------------------------------------------|


e -------------------------------------------------------------------|
B -------------------------------------------------------------------|
G ---7-----7-6~---6-----6-4~----6-4~----6-4~----4----------4---------|
D ------------------------------------------------4--7~------4-7~----|
A -9---9-7------7---7-6-------6-------5-------5----------5-----------|
E -------------------------------------------------------------------|


e --------------------|
B --------------------|
G ---4---------4------|
D -----4-7~------4-7~-|
A -5---------5--------|
E --------------------|

VERSES

   A  G  F#m7
e -5--3--2---0-|
B -5--3--2---2-|
G -6--4--2-O-2-|
D -7--5--2-R-4-|
A -7--5--4---X-|
E -5--3--2---X-|

PRECHORUS

   A  G  F
e -5--3--1-|
B -5--3--1-|
G -6--4--2-|
D -7--5--3-|
A -7--5--3-|
E -5--3--1-|

CHORUS

   C  C7 F  G                                     G#
e -0--0--1--3-                                 e -4-|
B -1--1--1--3-                                 B -4-|
G -0--3--2--4-  THE LAST TIME THROUGH THE      G -5-|
D -2--2--3--5-  CHORUS, PLAY G# INSTEAD OF G.  D -6-|
A -3--3--X--X-                                 A -X-|
E -X--X--X--X-                                 E -X-|

THE INTRO IS ALSO USED AS THE OUTRO.

SONG ORDER:

INTRO
VESRE
PRECHORUS
CHORUS
SOLO (INTRO)
Tap to rate this tab
# A B C D E F G H I J K L M N O P Q R S T U V W X Y Z