Song name
# A B C D E F G H I J K L M N O P Q R S T U V W X Y Z

Surfact - Soulslide tab

----------------------------------------------------------------------------
			     Soulslide - Surfact
----------------------------------------------------------------------------
Tabbed by: Bee-Ay
Email: Leviathan_ben@hotmail.com

Tuning: Standard.

Hello folks. This is some new music for a new danish band.
A mixture of Grunge and hard rock... Love it..

Intro:
Guitar 1:
e|-------------------------------------------------------------------|
B|-------------------------------------------------------------------|
G|*------------------------------------------------------------------|
D|*-7-7-7-7-7-7-7-7-7-7-7-7-7-7-7-7--2-2-2-2-2-2-2-2-2-2-2-2-2-2-2-2-|
A|--7-7-7-7-7-7-7-7-7-7-7-7-7-7-7-7--2-2-2-2-2-2-2-2-2-2-2-2-2-2-2-2-|
E|--5-5-5-5-5-5-5-5-5-5-5-5-5-5-5-5--0-0-0-0-0-0-0-0-0-0-0-0-0-0-0-0-|

e|---------------------------------------------------------------|
B|---------------------------------------------------------------|
G|--------------------------------------------------------------*|
D|-5-5-5-5-5-5-5-5-5-5-5-5-5-5-5-5--5-5-5-5-5-5-5-5-5-5-5-5-5-5-*|
A|-5-5-5-5-5-5-5-5-5-5-5-5-5-5-5-5--3-3-3-3-3-3-3-3-3-3-3-3-3-3--|
E|-3-3-3-3-3-3-3-3-3-3-3-3-3-3-3-3--3-3-3-3-3-3-3-3-3-3-3-3-3-3--|


Guitar 2:
e|---------------------------------------------|--------------------------------------------|
B|--13--------13-------13-------13----13-------|-12--------12-------12-------12----12-------|
G|*-----14-------14-------14-------14----14----|-----14-------14-------14-------14----14----|
D|*--------14-------14-------14-------------14-|--------14-------14-------14-------------14-|
A|---------------------------------------------|--------------------------------------------|
E|---------------------------------------------|--------------------------------------------|

e|---------------------------------------------|--------------------------------------------|
B|--15--------15-------15-------15----15-------|-13--------13-------13-------13----13-------|
G|------14-------14-------14-------14----14----|-----14-------14-------14-------14----14----|
D|---------14-------14-------14-------------14-|--------14-------14-------14-------------14-|
A|---------------------------------------------|--------------------------------------------|
E|---------------------------------------------|--------------------------------------------|

e|---------------------------------------------|--------------------------------------------|
B|--13--------13-------13-------13----13-------|-12--------12-------12-------12----12-------|
G|------14-------14-------14-------14----14----|-----14-------14-------14-------14----14----|
D|---------14-------14-------14-------------14-|--------14-------14-------14-------------14-|
A|---------------------------------------------|--------------------------------------------|
E|---------------------------------------------|--------------------------------------------|

e|---------------------------------------------|---------------------------------------------|
B|---------------------------------------------|---------------------------------------------|
G|--14--------14-------14-------14----14-------|-14--------14-------14-------14----14-------*|
D|------14-------14-------14-------14----14----|-----14-------14-------14-------14----14----*|
A|---------15-------15-------15-------------15-|--------15-------15-------15-------------15--|
E|---------------------------------------------|---------------------------------------------|

Verse:
Guitar 2:
e|---------------------------------------------|--------------------------------------------|
B|--13--------13-------13-------13----13-------|-12--------12-------12-------12----12-------|
G|*-----14-------14-------14-------14----14----|-----14-------14-------14-------14----14----|
D|*--------14-------14-------14-------------14-|--------14-------14-------14-------------14-|
A|---------------------------------------------|--------------------------------------------|
E|---------------------------------------------|--------------------------------------------|

e|---------------------------------------------|--------------------------------------------|
B|--15--------15-------15-------15----15-------|-13--------13-------13-------13----13-------|
G|------14-------14-------14-------14----14----|-----14-------14-------14-------14----14----|
D|---------14-------14-------14-------------14-|--------14-------14-------14-------------14-|
A|---------------------------------------------|--------------------------------------------|
E|---------------------------------------------|--------------------------------------------|

e|---------------------------------------------|--------------------------------------------|
B|--13--------13-------13-------13----13-------|-12--------12-------12-------12----12-------|
G|------14-------14-------14-------14----14----|-----14-------14-------14-------14----14----|
D|---------14-------14-------14-------------14-|--------14-------14-------14-------------14-|
A|---------------------------------------------|--------------------------------------------|
E|---------------------------------------------|--------------------------------------------|

e|---------------------------------------------|---------------------------------------------|
B|---------------------------------------------|---------------------------------------------|
G|--14--------14-------14-------14----14-------|-14--------14-------14-------14----14-------*|
D|------14-------14-------14-------14----14----|-----14-------14-------14-------14----14----*|
A|---------15-------15-------15-------------15-|--------15-------15-------15-------------15--|
E|---------------------------------------------|---------------------------------------------|


Guitar 1 kicks in:

e|-------------------------------------------------------------------------------------|
B|-------------------------------------------------------------------------------------|
G|*-----------------------------------------------------------------------------------*|
D|*-7-7----7-7--7-7-------2-2----2-2--2-2-------5-5----5-5--5-5-------5-5----5-5--5-5-*|
A|--7-7----7-7--7-7-------2-2----2-2--2-2-------5-5----5-5--5-5-------3-3----3-3--3-3--|
E|--5-5----5-5--5-5-------0-0----0-0--0-0-------3-3----3-3--3-3-------3-3----3-3--3-3--|

Chorus:
e|-------------------------------------------------------------------|
B|-------------------------------------------------------------------|
G|*------------------------------------------------------------------|
D|*-7-7-7-7-7-7-7-7-7-7-7-7-7-7-7-7--2-2-2-2-2-2-2-2-2-2-2-2-2-2-2-2-|
A|--7-7-7-7-7-7-7-7-7-7-7-7-7-7-7-7--2-2-2-2-2-2-2-2-2-2-2-2-2-2-2-2-|
E|--5-5-5-5-5-5-5-5-5-5-5-5-5-5-5-5--0-0-0-0-0-0-0-0-0-0-0-0-0-0-0-0-|

e|--------------------------------------------------------------------|
B|--------------------------------------------------------------------|
G|-------------------------------------------------------------------*|
D|--5-5-5-5-5-5-5-5-5-5-5-5-5-5-5-5--3-3-3-3-3-3-3-3-3-5-5-5-5-5-5-5-*|
A|--5-5-5-5-5-5-5-5-5-5-5-5-5-5-5-5--3-3-3-3-3-3-3-3-3-5-5-5-5-5-5-5--|
E|--3-3-3-3-3-3-3-3-3-3-3-3-3-3-3-3--1-1-1-1-1-1-1-1-1-3-3-3-3-3-3-3--|


Breakdown to second verse with bass and drums.

===  Verse  ===


Guitar 2 play this in second Chorus:  
e|--------------------------------------------------------------------------------------------------
B|--------------------------------------------------------------------------------------------------
G|-14-14-14-14-14-14-14-14-14-14-14-14-14-14-14-14--12-12-12-12-12-12-12-12-12-12-12-12-12-12-12-12/
D|-x-x-x-x-x-x-x-x-x-x-x-x-x-x-x-x--x-x-x-x-x-x-x---x-x-x-x-x-x-x-x-x-x-x-x-x-x-x-x-x-x-x-x-x-x-x-x-
A|-12-12-12-12-12-12-12-12-12-12-12-12-12-12-12-12--10-10-10-10-10-10-10-10-10-10-10-10-10-10-10-10/
E|--------------------------------------------------------------------------------------------------

e|---------------------------------------------------------------------------------------------
B|---------------------------------------------------------------------------------------------
G|-16-16-16-16-16-16-16-16-16-16-16-16-16-16/-17-17-17-17-17-17-17-17-17-17--16-16-16-16-16-16-
D|-x-x-x-x-x-x-x-x-x-x-x-x-x-x-x-x--x-x-x-x-x-x-x-x-x-x-x-x-x-x-x-x-x-x-x-x-x-x-x-x-x-x-x-x-x--
A|-14-14-14-14-14-14-14-14-14-14-14-14-14-14/-15-15-15-15-15-15-15-15-15-15--14-14-14-14-14-14-
E|---------------------------------------------------------------------------------------------

e|--------------------------------------------------------------------------------------------------
B|--------------------------------------------------------------------------------------------------
G|-14-14-14-14-14-14-14-14-14-14-14-14-14-14-14-14--12-12-12-12-12-12-12-12-12-12-12-12-12-12-12-12/
D|-x-x-x-x-x-x-x-x-x-x-x-x-x-x-x-x--x-x-x-x-x-x-x---x-x-x-x-x-x-x-x-x-x-x-x-x-x-x-x-x-x-x-x-x-x-x-x-
A|-12-12-12-12-12-12-12-12-12-12-12-12-12-12-12-12--10-10-10-10-10-10-10-10-10-10-10-10-10-10-10-10/
E|--------------------------------------------------------------------------------------------------

e|---------------------------------------------------------------------------------------------|
B|---------------------------------------------------------------------------------------------|
G|-16-16-16-16-16-16-16-16-16-16-16-16-16-16/-17-17-17-17-17-17-17-17-17-17--19-19-19-19-19-19-|
D|-x-x-x-x-x-x-x-x-x-x-x-x-x-x-x-x--x-x-x-x-x-x-x-x-x-x-x-x-x-x-x-x-x-x-x-x-x-x-x-x-x-x-x-x-x--|
A|-14-14-14-14-14-14-14-14-14-14-14-14-14-14/-15-15-15-15-15-15-15-15-15-15--17-17-17-17-17-17-|
E|---------------------------------------------------------------------------------------------|



Bridge:

Guitar 1:
e|--------------------------------------------|
B|--------------------------------------------|
G|*------------------------------------------*|
D|*-7-7-7-7----2-2-2-2----3-3-3-3----5-5-5-5-*|
A|--7-7-7-7----2-2-2-2----3-3-3-3----5-5-5-5--|
E|--5-5-5-5----0-0-0-0----1-1-1-1----3-3-3-3--|

Guitar 2:
Listen carefully to the slides.
e|------------------------------------------------|
B|-17~-----15---11-\\-----------------------------|
G|-x-------x----x------//--14/-16--16\-12/14--14~-|
D|-14~-----12---10-\\------x---x---x---x---x---x--|
A|---------------------//--12/-14--14\-10/12--12~-|
E|------------------------------------------------|


There´s a place you can hide from disorder
Drift away as your dreams 

Fill:
 come  to life all  along
e|----------------------|
B|----------------------|
G|-----9----------------|
D|-7-------9---9b10r--7-|
A|----------------------|
E|----------------------|


Alternative Chorus:

Guitar 1:
e|----------------------------------------------------------------------|
B|----------------------------------------------------------------------|
G|*--------------------------------------------------------------------*|
D|*-7-7-7-7-7-7--2-2-2-2-2-2-2-2-2-2--3-3-3-3-3-3--5-5-5-5-5-5-5-5-5-5-*|
A|--7-7-7-7-7-7--2-2-2-2-2-2-2-2-2-2--3-3-3-3-3-3--5-5-5-5-5-5-5-5-5-5--|
E|--5-5-5-5-5-5--0-0-0-0-0-0-0-0-0-0--1-1-1-1-1-1--3-3-3-3-3-3-3-3-3-3--|

Guitar 2:
e|-----------------------------------------
B|-----------------------------------------
G|----9----------9----------9--------------
D|-7-----9----7-----9----7-----9--9b10r--7-
A|-----------------------------------------
E|-----------------------------------------

e|-----------------------------------------|
B|-----------------------------------------|
G|----9----------9----------9--9b10r--7--9-|
D|-7-----9----7-----9----7-----------------|
A|-----------------------------------------|
E|-----------------------------------------|

I will add solo soon.. Tak.

Www.Surfact.dk
Tap to rate this tab
 
# A B C D E F G H I J K L M N O P Q R S T U V W X Y Z