Song name
# A B C D E F G H I J K L M N O P Q R S T U V W X Y Z

Surfaris - Wipe Out tab

E|-------------------------------------------------------|
B|-------------------------------------------------------|
G|-------------------------------------------------------|
D|-------------------------------------------------------|
A|--1-2-3-3-3-1-----1-2-3-3-3-1-----1-2-3-3-3-1----------|
E|-3------------3-3-------------3-3-------------3-3------|

E|--------------------------------------------------------|
B|--------------------------------------------------------|
G|--------------------------------------------------------|
D|---1-2-3-3-3-1-----1-2-3-3-3-1--------------------------|
A|-3-------------3-3-------------3-3----1-2-3-3-3-1-------|
E|-----------------------------------3---------------3-3--|

E|----------------------------------------------------------------|
B|----------------------------------------------------------------|
G|----------------------------------------------------------------|
D|---3-4-5-5-5-3---5---3-3-3-1---3--------------------------------|
A|-5-------------5-------------3------1-2-3-3-3-1----1------------|
E|----------------------------------3-------------3-3--3--3---1---|
 wait about four seconds after each chord, thats the drummy bit going!

E|--8----8----8----8----12----10----8---------------------|
B|--11---11---8----11---12----10----11--------------------|
G|--7----7----8----7----12----10----7---------------------|
D|--8----8----7----8----12----10----8---------------------|
A|--10---10---8----10---10----8-----10--------------------|
E|--8----8---------8----------------8---------------------|

Then the fisrt bit again. Wicked surfy song, easy to play sounds awesomeee!
Tap to rate this tab
 
# A B C D E F G H I J K L M N O P Q R S T U V W X Y Z