Song name
# A B C D E F G H I J K L M N O P Q R S T U V W X Y Z

Surfer Blood - Swim To Reach The End tab

Artist: Surfer Blood
Song: Swim (To Reach the End)
Website: http://pitchfork.com/reviews/albums/13844-astro-coast/

Didn't see it up, figure I'd tab it.


Intro:
Guitar #1
e--------------------------|
B--------------------------|
G--------------------------|
D-9-9-9-9-9----------------| x4
A-7-7-7-7-7-----7-7-7-7-7--|
E---------------5-5-5-5-5--|

I'm not entirely sure what guitar #2 does but it's something like this (after the intro x2)
e--------------------------------------|
B-------------------------12--12---14--|
G-13-------13-------------14--14-------|
D-------14-----14-----14---------------| x2
A----14------------12------------------|
E--------------------------------------|

Chorus
e----------------------|
B----------------------|
G-----------9-9--9-9-9-|
D-7---11-9--9-9--9-9-9-| x4
A-7---11-9--7-7--7-7-7-|
E-5---9--7-------------|

Guitar #1
e-------------------------|
B-------------------------|
G-------------------------|
D-------------------------|
A-2---6--4---7-7--7-7-6-4-|
E-0---4--2---5-5--5-5-4-2-|

Guitar #2
A-7-7-7-7-7-7-7-7-7-7-7- etc.

Guitar #1
e-----------------------------------|
B-----------------------------------|
G-----------------------------------|
D-----6-------6-7-----6-7------6----|
A-7-7---7-6-6-----4-4---------------|
E-------------------------7-7-----7-|

Guitar #2
e---------------------------|
B-9-9-9s10-10s12-12-14-14s9-|
G---------------------------|
D---------------------------|
A---------------------------|
E---------------------------|

Next part
e------------------------------------|
B------------------------------------|
G-9-9--9-9-9-----9-------------------|
D-9-9--9-9-9--9--9--9--9--9--9--9--9-| xsomething
A-7-7--9-7-7--9--7--6--6--6--6--6--6-|
E------7------7-----7--7--7--7--7--7-|

then it's...
e-------|
B-------|
G-------|
D-------|
A-6-7-9-|
E-4-5-7-|

Leading back to the intro and then chorus which close the song!

Complaints? Compliments? Requests? Feeling lonely?
Email me at toejam10@hotmail.com
Tap to rate this tab
# A B C D E F G H I J K L M N O P Q R S T U V W X Y Z