Song name
# A B C D E F G H I J K L M N O P Q R S T U V W X Y Z

Surfer Blood - Floating Vibes tab

I saw there wasnt a tab for this song, and this this my first attempt at a tab. I
havnt quite worked out everything yet, but here we go.

intro

guitar 1 + 2

e -------------|
b -------------|
g -------------|
d -------------|     X3 (do it a 4th time aswell, but on the 4th
a --7-777-77-77|         miss out the last two from that --)
E --0-000-00-55|

e-------------------------------------------------------------|
b-------------------------------------------------------------|
g-------------------------------------------------------------|
d--11-13-11-9--9--9--9-11-13-11-9--9------11-13-11-9--9-9--9--|
a------------11-11-11------------11-11-9------------11--11-11-|
E---------------------------------------11--------------------|

B Chord      E

e--7-7-------x-------|
b--7-7-------5-------|
g--8-8-------x-------|
d--9-9-------6-------|
a--9-9-------7---777-|
E--7-7-------x---000-|

e----------------------------------------------------------------|
b----------------------------------------------------------------|
g-----------------------------------11---11----------------------|
d--11-13-11-9--9--9--9-11-13-11-9----9---9--11-13-11-9--9-9--9---|
a------------11-11-11------------11--11-11-----------11--11-11---|
E----------------------------------------------------------------|

B Chord      E

e--7-7-------x-------|
b--7-7-------5-------|
g--8-8-------x-------|
d--9-9-------6-------|
a--9-9-------7---777-|
E--7-7-------x---000-|

Verse 1
 'Forget the second coming' (this is the same for each line)
                              B        E
e--------------           e--7-7-------x---|
b--------------           b--7-7-------5---|
g--------------  X3       g--8-8-------x---|
d-11-13-11-9--9           d--9-9-------6---|
a-----------11-           a--9-9-------7---|
E--------------           E--7-7-------x---|

(you repeat the above for the second part of the 1st verse) which starts with 'When you 
me you were leaving'

Solo (after first verse)

Guitar 1.
1st part                  2nd Part
e----------12----------   e-------------|
b--10-12-14--14-12/9\12   b-------------|
g----------------------   g---9---11-9~-|
d----------------------   d--7-7-9--9---|
a----------------------   a-------------|
E----------------------   E-------------|

Guitar 2.
1st Part                  2nd Part
A Chord  E Chord             A  B  E
e--5-----x----            e--5--7--x-|
b--5-----9----            b--5--7--9-|
g--6-----9----            g--6--8--9-|
d--7-----9----            d--7--9--9-|
a--7-----7----            a--7--9--7-|
E--5-----x----            E--5--7--x-|

(do this twice over, but on the second time around the guitar 1, first part goes like this)

e----------12-----------|
b--10-12-14--14-12-12/9-|
g-----------------------|
d-----------------------|
a-----------------------|
E-----------------------|

Guitar 2.
Verse 2.
'If your moving out to the west'
e------------|
b------------|
g------------|
d------------|
a--777777-7~-|
E--555555-0~-|
'then you'd better learn how to surf'
e-------------|
b-------------|
g-------------|
d-------------|
a--7777-99-7~-|
E--5555-77-0~-|

(this is the same for the whole of the verse, and the next verse beggining 'if your 
do it, then do it')

Guitar 1 does something slightly different at this point for verse 2 and 3. You can do 
same, it would sound ok. but i think it is something like this

e------------------------|
b------------------------|
g------------------------|
d-------------2222-44----|
a--777-444-2~~0000-22-2~-|
E--555-555-0~~xxxx-xx-0~-|

at the end of this play this chords into the instrumental

G#  A   B
4   5   7
4   5   7
5   6   8
6   7   9
6   7   9
4   5   7

instrumental i havnt worked out yet, if any one could tell me what it is, that would be great.

back into the same thing as the intro going into the next verse

d-----------|
a--77777-77-|
E--00000-55-|

verse 4 beggining
use barr chords already shown

   A  B  E
e--5--7--x-|
b--5--7--9-|
g--6--8--9-|
d--7--9--9-|
a--7--9--7-|
E--5--7--x-|
A                                        B                E
'when you wake up in the morning and you hear that aweful applause'

then back to this for second part of the verse ('put it in you fucking napkin, and 
watch it dissolve')
                  B    E
e-----------------7-7--x-|
b-----------------7-7--5-|
g-----------------8-8--x-|
d-11-13-11-9--9---9-9--6-|
a-----------11----9-9--7-|
E-----------------7-7--x-|

this process is the same for the next part of that verse which is

'You could seal it in an envelope
Tuck it away in your safe
But you can't take it to the bank
And you can't take it back'

the rest is all instrumental, and i havnt figured it all out yet.
some of it is the same as the solo at the beginning, if you wanna figure it out yourselves.

please try and correct, cause not to sure its all right.
Tap to rate this tab
# A B C D E F G H I J K L M N O P Q R S T U V W X Y Z