Surfer Blood - Anchorage tab

-----------------------------------------------------------------------------
			     ANCHORAGE - Surfer Blood
-----------------------------------------------------------------------------

Tuning - Standard

e|----------------------------------------------|
B|----------------------------------------------|
G|----------------------------------------------|
D|---7--7---------------5-----------------------|
A|---7--7---------------5-----------------------|
E|---10-8---------------8-----------------------|

e|----------------------------------------------|
B|----------------------------------------------|
G|----------------------------------------------|
D|---10---10-10-10-10---5--5-5------------------|
A|---10---10-10-12-10---5--7-7------------------|
E|---8----8--8--8--8----8--8-8------------------|

e|-----------------------------------0----------|
B|-----------------------------------0----------|
G|-----------------------------------0----------| x2
D|---7--7---9-9-9-9------------------2----------|
A|---7--7------------7-7--------5-7--2----------|
E|---10-8-------------------5-7------0----------|

e|-----------------------0-----------------------|
B|-----------------------0-----------------------|
G|-----------------------0-----------------------| x2
D|(2)-1------------------2-----------------------|
A|------5(x15)------5-7--2-----------------------|
E|-------------5-7-------0-----------------------|


e|----------------------------------------------|
B|----------------------------------------------|
G|----------------------------------------------|
D|---7--7---------------5-----------------------|
A|---7--7---------------5-----------------------|
E|---10-8---------------8-----------------------|

e|----------------------------------------------|
B|----------------------------------------------|
G|----------------------------------------------|
D|---10---10-10-10-10---5--5-5------------------|
A|---10---10-10-12-10---5--7-7------------------|
E|---8----8--8--8--8----8--8-8------------------|


e|-----------------------------------------------|
B|-----------------------------------------------|
G|---0---2-0-2-4--0---0-0-0----------------------|
D|---0---0-0-0-0--2---4-4-4--0-0-0---------------|
A|---3---3-3-3-3--3---3-3-3--3-3-3---------------|
E|---3---3-3-3-3--3---3-3-3--3-3-3---------------|

e|----------------------------------------------|
B|----------------------------------------------|
G|----------------------------------------------|
D|----------------2--0-2-2-2-2-2-2--------------|
A|---2---5-2-5/7--2--0-2-3-3-3-3-3--------------|
E|---3---3-3-3----0--0-0-3-3-3-3-3--------------|
Tap to rate this tab
 
# A B C D E F G H I J K L M N O P Q R S T U V W X Y Z