Surfer Blood - Take It Easy tab

-----------------------------------------------------------------------------
                           TAKE IT EASY - Surfer Blood
-----------------------------------------------------------------------------

I tabbed out the parts, listen to the song to know when to play them

* - palm mute

Guitar 1

e|--10-10----|
B|--10-10----|
G|--11-11----|
D|--12-12----|
A|--12-12----|
E|-----------|

Guitar 2

e|---------------------------------------|
B|-------------0-------------------------|
G|--7-7------7---------------------------|
D|--7-7----7-----------------------------|
A|--5-5--9-------------------------------|
E|---------------------------------------|
         * * *

e|---------------------------------------|
B|-----------------0---------------------|
G|---------------7-----------------------|
D|-------------7-------------------------|  (tens, not ones and zeros)
A|-----------9---------------------------|
E|--10-1010------------------------------|
    *  * *   * * *


e|---------------------------------------|
B|---------------------------------------|  On this part I think the second
G|---------------------------------------|  guitar is playing the same thing
D|---------------------------------------|  but palm muted, and continuous
A|--------5-------------5----------------|  strumming.
E|--5-7-9-----7---7-5-7---7-5-3----------|


e|--5---3---|---------------|
B|--5---3---|---------------|
G|--6---4---|---------------|
D|--7---5---|--7---7-7---5--|
A|--7---5---|--7---7-7---5--|
E|--5---3---|--5---5-5---3--|
               *   * *   *
__________________________________

The second time it goes into the "take it easy" part, play this until the end of the 
on the second guitar:

e|-------------|
B|-------------|
G|-------------|
D|------9------|
A|--7-----11---|
E|----9--------|

__________________________________

e|---------|
B|---------|
G|---------|
D|---------|
A|---------|
E|--5-7-9--|

After playing this little diddy go back to the beginning, this is all you need to know 
play the song.
Tap to rate this tab
 
# A B C D E F G H I J K L M N O P Q R S T U V W X Y Z