Surfer Blood - Harmonix tab

I should probably preface this by saying this is my first attempt at tabbing a song.
I tried the other tab I could find but it didn't sound quite right, so I decided 
to try my ear at this song.
Any comments or criticism can be sent to iondissonance@live.ca but quite frankly, 
I'll probably never even read them because I don't check my email.

Almost all 12's and 7's are harmonix (the only exception is the outro riff)

Intro:

0:00 - 0:07:
E--------------------0-1-------4--]
B------2-----------2-----3-0---3--]
G----2--2--------2-------------4--]
D--2-----2-----2------------------]
A-0----------0--------------------]
E---------------------------------]

Drums

0:16 - 0:32:
E--12----------------7----------------]
B--12----------------7----------------]
G--12----------------7----------------] (4 Times)
D-------------------------------------]
A-------------------------------------]
E-------------------------------------]


0:33 - 1:03:
Guitar 1:     (8 times)
E--12-12-12-12-12-12-12-12-7-7-7-7-7-7-7-7-]
B--12-12-12-12-12-12-12-12-7-7-7-7-7-7-7-7-]
G--12-12-12-12-12-12-12-12-7-7-7-7-7-7-7-7-]
D------------------------------------------]
A------------------------------------------]
E------------------------------------------]


Guitar 2:     (2nd and 6th time)
E---------12-------12------7---------------]
B----------12---------------7--------------]
G--12-12-------------7---------------------]
D------------------------------------------]
A------------------------------------------]
E------------------------------------------]

              (4th and 8th time)             
E---------12---------------7---------------]
B----------12---------------7--------------]
G--12-12-----------12----------------------]
D------------------------------------------]
A------------------------------------------]
E------------------------------------------]

We could have been the best of friends.
Now I'll never see this place again.
So please, please, please, don't wait for me to try and get it together.
Please don't wait for me to reappear, cause I'm not here.

1:04 - 1:19:
E-------------------------------------------------]
B-------------------------------------------------]
G-------------------------------------------------] 
D-------------------------------------------------]   (4 times)
A--------2-----------2-----------2-----------2----]
E--3--3-----3--3--3-----3--0--0-----0--0--0-----0-]

Because, I won't wait around for    
the grass to grow back now.
I won't wait around
for your vaults to open, let me in somehow

1:20 - 1:34:
  (G)                    (Em) 
E-------------------------------------------------]
B-------------------------------------------------]
G-------------------------------------------------] 
D--------------------------------------------0----]   (4 times)
A--------2-----------2-----------2-----3--2-----2-]
E--3--3-----3--3--3-----3--0--0-----0-------------]


1:35 - 1:50
E--12----------------7----------------]
B--12----------------7----------------]
G--12----------------7----------------] (3 Times)
D-------------------------------------]
A-------------------------------------]
E-------------------------------------]

E--12----------------~----------------]
B--12----------------~----------------]
G--12----------------~----------------]
D-------------------------------------]
A-------------------------------------]
E-------------------------------------]


1:51 - 2:06:
Guitar 1:
E--12-12-12-12-12-12-12-12-7-7-7-7-7-7-7-7-]
B--12-12-12-12-12-12-12-12-7-7-7-7-7-7-7-7-]
G--12-12-12-12-12-12-12-12-7-7-7-7-7-7-7-7-]
D------------------------------------------]  (4 times)
A------------------------------------------]
E------------------------------------------]


Guitar 2:    (2nd and 4th times)
E---------12-------12------7---------------]
B----------12---------------7--------------]
G--12-12-------------7---------------------]
D------------------------------------------]
A------------------------------------------]
E------------------------------------------]

Why think about it every day
When you could plainly walk away


2:07 - 2:22:
E-------------------------------------------------]
B-------------------------------------------------]
G-------------------------------------------------] 
D-------------------------------------------------]   (4 times)
A--------2-----------2-----------2-----------2----]
E--3--3-----3--3--3-----3--0--0-----0--0--0-----0-]

And I won't wait around for the ice to thaw out now
I won't wait around for the heart to open, let me inside


2:23 - 2:38:
  (G)                    (Em) 
E-------------------------------------------------]
B-------------------------------------------------]
G-------------------------------------------------] 
D--------------------------------------------0----]   (4 times)
A--------2-----------2-----------2-----3--2-----2-]
E--3--3-----3--3--3-----3--0--0-----0-------------]


2:38 - 3:18:
  (C)
E--0---0---0---0---0---0---0---0----]
B--1---1---1---1---1---1---1---1----]
G--0---0---0---0---0---0---0---0----]
D--2---2---2---2---2---2---2---2----]
A--3---3---3---3---3---3---3---3----]
E-----------------------------------]

Guitar 1:
  (G)                     (Em)
E--3--3--3--3--3--3--3--3--0--0--0--0--0--0--0--0--]
B--0--0--0--0--0--0--0--0--0--0--0--0--0--0--0--0--]
G--0--0--0--0--0--0--0--0--0--0--0--0--0--0--0--0--]
D--0--0--0--0--0--0--0--0--2--2--2--2--2--2--2--2--]  
A--2--2--2--2--2--2--2--2--2--2--2--2--2--2--2--2--]
E--3--3--3--3--3--3--3--3--0--0--0--0--0--0--0--0--]


Guitar 2:
E---------------------------------------------------]
B---------------------------------------------------]
G--4--4--4--4--4--4--4--4--4--4--4--4--4--4--4--4---]
D---5--5--5--5--5--5--5--5--5--5--5--5--5--5--5--5--]
A---------------------------------------------------]
E---------------------------------------------------]

And I won't fuckin' fold, Oh oh, Oh oh
For perfection's in your own, I hope. Oh oh.
And I won't wait around, oh oh
For you to figure it out

Last riff:

E-----------------------------------------------]
B-----------------------------------------------]
G-----------------------------------------------]
D-----------------------------------------------]
A--7-7-7--5--7--7--5--7-------------------------]
E-------------------------7-7-7--5--7--7--5--7--]
Tap to rate this tab
 
# A B C D E F G H I J K L M N O P Q R S T U V W X Y Z