Surfer Blood - Slow Jabroni tab

-------------------------------------------------------------------------------
			     SLOW JABRONI - Surfer Blood
-------------------------------------------------------------------------------
Tabbed by: James McTurk
Email: Meh.

Tuning: Standard

Feel free to update and/or distrubute as you wish... It's not like I wrote this song.

I use all barre chords for the end part. Just listen to the song and get a feel
for it, it's pretty simple. Also, this tab isn't 100% accurate.

Notation:
h - hammer-on
~ - hold note as needed

Riff 1
   |1 + 2 + 3 + 4 + 5 + 6 + |
e|-----------------------------|
B|-----------------------------|
G|-----------------------------|
D|----------2-4-2~-------------|
A|------2-5--------------------|
E|--3-5------------------------|

Riff 2
   |1 + 2 + 3 + 4 + 1 + 2 + 3 + 4 + |
e|-----------------------------------|
B|-----------------------------------|
G|-----------------------------------|
D|----------0~-----------------------|
A|------2-5~----2~----------0h2-0h2--|
E|--3-5------------------------------|

Riff 3
e|----------------|
B|----------------|
G|----------------|
D|--4-2-0---------|
A|--------2-------|
E|----------------|

Riff 4
   |1 + 2 + 3 + 4 + 1 + 2 + 3 + 4 + |
e|----------------------------------|
B|----------------------------------|
G|----------------------------------|
D|----------0~----------------------|
A|------2-------2~----------0h2-0h2-|
E|--3-5---3-------------------------|

Riff 5
   |1 + 2 + 3 + 4 + 1 + 2 + 3 + 4 + |
e|------------------------3-3-3------|
B|------------------------3-3-3------|
G|------------------------4-4-4------|
D|--------2-0~------------5-5-5------|
A|------2-----------------5-5-5------|
E|--3-5-------------------3-3-3------|

Riff 6
e|-----------------|
B|--8-5-8-5-8-5----|etc
G|-----------------|
D|-----------------|
A|-----------------|
E|-----------------|

Play them in this order:
Riff 1     x8    6/8 Time
Riff 2     x12   4/4
Riff 1 + 3 x4  (back in 6/8)
Riff 2     x12   4/4
Riff 4     x4? (This might just be riff 2 still)
Riff 5 + 6 x4, then...

     D                              C               Bm  Am    G
If I knew you'd guard your heart so jealously, then I'd fight through
                                C                                          G
There's nothing in this joyless world to see, there are no places that are left to see
                                  C
There's just the wilderness, it's shame
     D                       C              Bm  Am   G
If I knew you'd push away so savagely, then I'd back off
       C    G
So-o-o-ooo, take it easy on me
Take it easy on me
             C
Take it easy on me
Take it easy on me
                        G
They lumped us into the same boat
Sinking on the same ship
                 C
Gasping with the same breath
They try to work the same mouth
                G
Whatever's deep inside me
Erupt from me entirely
            C
Thaw me out completely
      D                C                   Bm  Am
And I knew somehow I'd find you there and I'd be   ????

????
????  A little end jam that I don't know the chords to, and finally:
G, G A B C, Cm

=============================================================================================
Tap to rate this tab
 
# A B C D E F G H I J K L M N O P Q R S T U V W X Y Z