Song name
# A B C D E F G H I J K L M N O P Q R S T U V W X Y Z

Surfer Blood - Neighbour Riffs tab

Neighbour Riffs by Surfer Blood off of Astrocoast

Bass:

G------------------7-6------------|
D---------7-7-7-7-------7--7-7-7--|
A-7-7-7-7-------------------------|  and repeat until the end of the song
E---------------------------------|

Guitar riff 1

e-------------------------------------|
B-------------------------------------|
G-----9--------9--------9--------9----|    x8
D-9-9---9-7-7----7-6-6----6-7-7---7---|
A-------------------------------------|
E-------------------------------------|

Guitar riff 2

e------------------------------|-----------------------------------|
B-99-9-7-9-9-7-9--99-7-9s12-12-|--99-9-7-9-9-7-9--99-9-9-9s7-7-----|
G------------------------------|-----------------------------------|
D------------------------------|-----------------------------------|
A------------------------------|-----------------------------------|
E------------------------------|-----------------------------------|

e---------------12---------------|---------------------------------|
B-99-9-7-9-9-7-----99-9-9-9s7-7--|-99-9-9-9s7-7-7-7s5--------------|
G--------------------------------|---------------------------------|
D--------------------------------|---------------------------------|
A--------------------------------|---------------------------------|
E--------------------------------|---------------------------------|

Guitar riff 3

e------------------------------------------------------------|
B-5-5-9-9-7-7-10-9h10p9-7h9p7-5h7p5-4h5p4-2--2---2--0--------|
G------------------------------------------------------------|
D------------------------------------------------------------|  x4
A------------------------------------------------------------|
E------------------------------------------------------------|

Guitar riff 4

e------------------------------------------------------------|
B-9-12-12-10-10-14-12h14p12-10h12p10-9h10p9-7----------------|
G------------------------------------------------------------|
D------------------------------------------------------------|   x2
A------------------------------------------------------------|
E------------------------------------------------------------|

You can watch me play it here http://www.youtube.com/watch?v=kBkYMHdfXkU 
(I make a mistake with the lead guitar in the first repetition, but the rest is accurate)
Tap to rate this tab
 
# A B C D E F G H I J K L M N O P Q R S T U V W X Y Z