Song name
# A B C D E F G H I J K L M N O P Q R S T U V W X Y Z

Surfer Blood - Im Not Ready tab

e|---------------------------------------------|
B|---------------------------------------------|
G|--12--9--12--9--12--9--12-/14--12-------9-9--|
D|-----------------------------------12-12-----|
A|---------------------------------------------|
E|---------------------------------------------|

e|---------------------------------------------|
B|------------------------12-------------------|
G|--12--9--12--9--12--9-12---12------9---------|
D|--------------------------------12-----12-10-|
A|---------------------------------------------|
E|---------------------------------------------|

e|---------------------------------------------|
B|---------------------------------------------|
G|-9-9-9-10-10-10-7-7-7-9-9-9--5-5-7-7---------|
D|---------------------------------------------|
A|---------------------------------------------|
E|---------------------------------------------|

e|---------------------------------------------|
B|---------------------------------------------|
G|-9-9-9-10-10-10------------------------------|
D|-----------------9-9-9-10-10-10-10~----------|
A|---------------------------------------------|
E|---------------------------------------------|


This is played for the majority of the song. Feel free to use this tab as a jumping off 
point to tab the remaining portion of the song. Enjoy!
Tap to rate this tab
# A B C D E F G H I J K L M N O P Q R S T U V W X Y Z