Survive This City - Danger Is My Maiden Name tab

This song's a half step down and drop D. [Db Ab Db Gb Bb Eb]
Not too many people know this band but for all aspiring indie rock band
local to PA band lovers. This one's for you. (:

Intro
Eb|-----------------------------------------------------------------------|
Bb|-----------------------------------------------------------------------|
Gb|-----14-----11-----10----11-----111111----14-----11-----10---11/12\11--|
Db|-1212---1212---1212---1212---1212------1212---1212---1212-----x/-x\-x--|
Ab|--------------------------------------------------------------9/-10\9--|
Db|-----------------------------------------------------------------------|
    ..     ..     ..     ..     ..        ..     ..     ..
^Their elevens and twelves. no ones.

Eb|---------------------------------------------------------------------|
Bb|---------------------------------------------------------------------|
Gb|-14--1111-9-9/11-11-9/1111--14--1111-9-9/11-11-11/12\11--------------| | Just this part
Db|-x---x-x--x-x/x--x--x/x-x---x---x-x--x-x/x--x--x--x- x---------------|         x2
Ab|-12--9-9--7-7/9--9--7/9-9---12--9-9--7-7/9--9--9/ 10\9---------------|
Db|---------------------------------------------------------------------|

Eb|--------------------------------------------------------------------------|
Bb|--------------------------------------------------------------------------|
Gb|-7777-------------------------------7777----------------------------------|
Db|-7777-4444444-5555555-2222-2p0-2/4--7777-4444444-555555-2p0-2/4-0-4/5\4---|
Ab|-5555-4444444-5555555-2222----------5555-4444444-555555-------------------|
Db|------4444444-5555555-2222---------------4444444-555555-------------------|

Verse                           1st lead fill   2nd lead fill
Eb|--------------------------|---------------|------------------|
Bb|--------------------------|---------------|------------------|
Gb|-77777777-----------------|---------------|------------------|
Db|-77777777-4444444-5555555-|22222-2p0-2/4--|2p0-2/4-0-4/5\4---|
Ab|-55555555-4444444-5555555-|22222----------|------------------|
Db|----------4444444-5555555-|22222----------|------------------|
      ......   .....   .....    ...
Next part is the same just with no palm mutes

Chorus
Eb|-------------------------------------|
Bb|-------------------------------------|
Gb|-------------------------------------|
Db|-9-x8--5-x8--0-----7-----------------| x4
Ab|-9-----5-----0-x8--7-x8--------------|
Db|-9-----5-----0-----7-----------------|
the open could be too.
               Db|7
               Ab|5
               Db|5

Post Chorus
Eb|---------------------------|
Bb|---------------------------|
Gb|-777-----------------------|
Db|-777-444-555-444-2h4p2p0---|
Ab|-555-444-555-444-2h4p2p0---|
Db|-----444-555-444-2h4p2p0---|
    ... ... ... ...

Verse is the same as always except the 2nd lead fill is
Db|-9p0-7p0-5p0--|

Chorus is the same.
Except after the 1st regular time when he plays it 2 times palm muted
I dunno the lead fills either so mess around.

Outro
Eb|---------------------------------------------|
Bb|---------------------------------------------|
Gb|---------------------------------------------|
Db|-4p0-4p0--7777-5-5\4-333/444/55-1111-99-1212-| x4
Ab|-4p0-4p0-------------333/444/55--------------|
Db|-4p0-4p0-------------333/444/55--------------|

End on an open.
Sorry if the chorus is kinda sketchy and a few lead parts are missing
it's the best i could do! I love this song and band and this i believe
is how you remotely play their song. Enjoy it!

p = pull off
h = hammer on
... = palm mute
/ = slide up
\ = slide down
x = mute note
Tap to rate this tab
 
# A B C D E F G H I J K L M N O P Q R S T U V W X Y Z