Song name
# A B C D E F G H I J K L M N O P Q R S T U V W X Y Z

Survivor - Rebel Girl tab

-------------------------------------------------------------------------------
			     Survivor - Rebel Girl
-------------------------------------------------------------------------------
Tabbed by:Bjovi400

Tuning:standard

guitar 1:
e|------------------------------------5~---------------------------------5~-7~-|
B|------------------------------------5~---------------------------------5~-7~-|
G|--4-4--------------------------2------------------------------------2--------|
D|--4-4--2---2-1-2-4-2-1-2-1-----2------------2---2-1-2-4-2-1-2-1-----2--------|
A|--2-2--2-------------------2---0------------2-------------------2---0--------|
E|-------0------------------------------------0--------------------------------|

guitar 2:
e|------------------------------------5~---------------------------------------|
B|------------------------------------5~---------------------------------------|
G|--4-4--------------------------2-------4-4--------------1-2-4-6-4-6-8-9-11^13|
D|--4-4--2---2-1-2-4-2-1-2-1-----2-------4-4--2---2-1-2-4----------------------|
A|--2-2--2-------------------2---0-------2-2--2--------------------------------|
E|-------0------------------------------------0--------------------------------|
                                                                          
This is the intro, obviously guitar 1 & 2 both play at the same. 
Tap to rate this tab
# A B C D E F G H I J K L M N O P Q R S T U V W X Y Z