Song name
# A B C D E F G H I J K L M N O P Q R S T U V W X Y Z

Survivor - Summer Nights tab

-------------------------------------------------------------------------------
			     Survivor - Summer Nights
-------------------------------------------------------------------------------
Tabbed by:Bjovi400

Tuning: Standard

This is the intro to Survivor's Summer Nights from their 1982 album Premonition.

e|--------------------------------------------------------------------14-16-17-|
B|---------------------------------------------------17^(19)-14-15-17----------|
G|-----16^(18)--16-14-16-16^(18)---14-------14-16-14---------------------------|
D|------------------------------------14-16------------------------------------|
A|-----------------------------------------------------------------------------|
E|-----------------------------------------------------------------------------|

e|----19-17-19^(21)-19-17-19^(21)-17-------------------------------------------|
B|-----------------------------------19-17-------------------------------------|
G|-----------------------------------------18-16-14-16^(18)-16-14-14h16p14-12--|
D|-----------------------------------------------------------------------------|
A|-----------------------------------------------------------------------------|
E|-----------------------------------------------------------------------------|


14h16p14  this means start on 14, hammer on 16, then pull off back on to 14.

16^(18)   this means to bend that note up to the fret listed (start at 16 and   bend 
it sounds like 18)
Tap to rate this tab
# A B C D E F G H I J K L M N O P Q R S T U V W X Y Z