Song name
# A B C D E F G H I J K L M N O P Q R S T U V W X Y Z

Survivor - No Easy Way Out tab

-----------------------------------------------------------------------------
                          No Easy Way Out - Survivor
-----------------------------------------------------------------------------

Tabbed by: Chris
Email: ChrisGuitar525@aol.com

(Bass intro)
G|---------------------------------------------------------------------------|
D|---------------------------------------------------------------------------|
A|---------------------------------------------------------------------------|
E|--10-10-10-12-12-12-12-8-8-8-12-10-----------------------------------------|

(chorus, also in the intro)
e|---------------------------------------------------------------------------|
B|---------------------------------------------------------------------------|
G|---------------------------------------------------------------------------|
D|--7---9---5---9--7---------------------------------------------------------|
A|--5---7---3---7--5---------------------------------------------------------|
E|---------------------------------------------------------------------------|

the verse is done by synthesizer, but there are some guitar parts during
the "Some things are worth fighting for.." you can switch between a E5 and D5, or
better yet.. whatever sounds best.

(solo 2, fade out)
e|---------10----------------------------10---------12-14-15-14--------------|
B|---------------------------------------------------------------------------|
G|--11-12-----12-11-9---11-7------11-12------12-11---------------------------|
D|---------------------------------------------------------------------------|
A|---------------------------------------------------------------------------|
E|---------------------------------------------------------------------------|

if anyone can tab the 1st solo, please send and/or post.

===============================================================================
Tap to rate this tab
# A B C D E F G H I J K L M N O P Q R S T U V W X Y Z