Song name
# A B C D E F G H I J K L M N O P Q R S T U V W X Y Z

Susan Tedeschi - It Hurt So Bad tab

It Hurt So Bad by Susan Tedeschi
Tabbed/Chorded by Joseph Visaggi


Intro
-----
A, F#m, A


Verse 1
-------
A, F#m, A, F#m
E, C#m, E, C#m, E, C#m, E, C#m
A, F#m, A, F#m

Verse 2
-------
A, F#m, A, F#m
E, C#m, E, C#m, E, C#m, E, C#m
A, F#m, A, F#m


Chorus
------
D, D7, D, D(7)
A, F#m, A, A
B, B/F#, B, B/F#
E, F, E


Verse 3
-------
A, F#m, A, F#m
E, C#m, E, C#m, E, C#m, E, C#m
A, F#m, A, F#m


Lead
----

e|-----------5-7/9-5----------------------|----|
B|-------5-7---------5--------------------|----|
G|-----6---------------(6)h7p6-----6------|----|
D|--/7-------------------------9-7---7----|----|
A|-------------------------------------7--|----|
E|----------------------------------------|----|

e|-----------5-8-5-8-5-7--|---9-7-5-7--|
B|-------5-7--------------|--10-9-7-9--|
G|-----6------------------|------------|
D|--/7--------------------|------------|
A|------------------------|------------|
E|------------------------|------------|

e|--12-9-12--10-7-10--(4)h5-7-5--4-7-4-4-7-4-4-7-4-4-7-4-4--|
B|----------------------------------------------------------|
G|----------------------------------------------------------|
D|----------------------------------------------------------|
A|----------------------------------------------------------|
E|----------------------------------------------------------|

e|--9-9--------7-5-5-5-5-7-5-5-5-5-5-7-5-5--|
B|------10-7-----5-5-5-5-5-5-6-6-6-6-6-6-5--|
G|-----------7------------------------------|
D|------------------------------------------|
A|------------------------------------------|
E|------------------------------------------|


Chorus
------
D, D7, D, D(7)
A, F#m, A, A
B, B/F#, B, B/F#
E, F, E


Verse 4
-------
A, F#m, A, F#m
E, C#m, E, C#m, E, C#m, E
A, F#m, A
A, F#m, A
A, F#m, A
A, F#m, A
A, F#m, A
D
A, F#m, A
A, F#m, A
A, F#m, A
A, F#m, A
A, F#m, A
(repeat and fade)




D7 should be played like this:

e|--8--|
B|--7--|
G|--7--|
D|--7--|
A|-----|
E|-----|
Tap to rate this tab
# A B C D E F G H I J K L M N O P Q R S T U V W X Y Z