Guitaretab - guitar tabs
Song name
# A B C D E F G H I J K L M N O P Q R S T U V W X Y Z

Susan Tedeschi - Talking About tab

-------------------------------
TALKING ABOUT - Susan Tedeschi
-------------------------------

Tuning: Standard
Part: Intro

                                                                          ~~~~
e|---------------------------------------------------------------------------|
B|---------------------------------------------------------------------------|
G|---------------------------------------------------------------------------|
D|----5--7--7b----7--5--7--5--------5--7--5----------5--7--7b----7--5--7--5--|
A|-7--------------------------7--7-----------7----7--------------------------|
E|---------------------------------------------------------------------------|

[ Tab from: http://www.guitaretab.com/s/susan-tedeschi/177353.html ]
                                                                          ~~~~
e|---------------------------------------------------------------------------|
B|---------------------------------------------------------------------------|
G|---------------------------------------------------------------------------|
D|----5--7--7b----7--5--7--5--------5--7--5----------5--7--7b----7--5--7--5--|
A|-7--------------------------7--7-----------7----7--------------------------|
E|---------------------------------------------------------------------------|


| /  slide up
| \  slide down
| h  hammer-on
| p  pull-off
| b  bend
| ~  vibrato
| +  harmonic
| x  Mute note
===============================================================================
Related for Talking About tab
Advertisement will be closed in 10 seconds