Guitaretab - guitar tabs
Song name
# A B C D E F G H I J K L M N O P Q R S T U V W X Y Z

Susan Tedeschi - I Fell In Love Live tab

Band/Artist: Susan Tedeschi
Song Title: I Fell In Love
Album: Live From Austin TX
Tuning: Standard
Transcribed by: aig91



|  h = hammer on
|  p = pull off
|  b = full bend
|  / = slide up
|  \ = slide down
|  x = muted note



Intro: 

  0:00
e|-----0--0--0--0--3--5--5------0--0--0--0--3\p0--------0--0--0--0--|
B|----/5--5--5--5--5--5--5-----/5--5--5--5--5\p0-------/5--5--5--5--|
G|-4------------------------4-----------------------4---------------|
D|------------------------------------------------------------------|
A|------------------------------------------------------------------|
E|------------------------------------------------------------------|


e|-0--0--0--0---0-----------------------||
B|-3--3--2--0---0--3--3--3--3--0--0--0--||
G|-----------------4--4--4--4--2--0--0--||
D|--------------------------------------||
A|--------------------------------------||
E|--------------------------------------||

   0:07
e|----------------------------------------------------|
B|----------------------------------------------------|
G|----------------------------------------------------|
D|----------------------------------------------------|
A|-2-----------2--2--4--2--2-----------2--2--4--2--2--|
E|-0--0--3--4--------------0--0--3--4--------------0--|


e|----------------------------------------------------|
B|----------------------------------------------------|
G|----------------------------------------------------|
D|----------------------------------------------------|
A|-2-----------2--2--4--2--4--2-----2h4--2--------2---|
E|-0--0--3--4--------------------4----------3--4------|


e|----------------------------------------------------|
B|----------------------------------------------------|
G|----------------------------------------------------|
D|-2--2--------2--2--4--2--------------2--2--4--2-----|
A|-0-----3--4--------------0--0--3--4-----------------|
E|----------------------------------------------------|


e|----------------------------------------------------|
B|----------------------------------------------------|
G|----------------------------------------------------|
D|---------------------------------------------2------|
A|-2-----------2--2--4--2--4--2-----2----2--4---------|
E|-0--0--3--4--------------------4--------------------|


e|----------------------------------------------------|
B|----------------------------------------------------|
G|----------------------------------------------------|
D|-4--4-----2--4--4--6--4--------------2--2--4--2-----|
A|-------4-----------------0--0--3--4-----------------|
E|----------------------------------------------------|


e|------------------------------------------------||
B|------------------------------------------------||
G|------------------------------------------------||
D|------------------------------------------------||
A|-------------2--2--4--2--4--2-----2----2--4--2--||
E|-0--0--3--4--------------------4----------------||



Verse 1: 

   0:27
   E7
e|-----------------------------------------------------|
B|-9-----------------9---------------9-----9-----------|
G|-7-----------------7---------------7-----7-----------|
D|-9-----------------9---------------9-----9-----------|
A|-7-----------------7---------------7-----7-----------|
E|-----------------------------------------------------|


e|-----------------------||
B|-/3--3--3--3--3--3--3--||
G|-/4--4--4--4--4--4--4--||
D|-----------------------||
A|-----------------------||
E|-----------------------||



Chorus:

   0:33
e|-----------------------------------------------------|
B|-----------------------------------------------------|
G|-----------------------------------------------------|
D|-2-----------2--2--4--2--2-----------2--2--4--2------|
A|-0--0--3--4--------------0--0--3--4------------------|
E|-----------------------------------------------------|


e|-----------------------------------------------------|
B|-----------------------------------------------------|
G|-----------------------------------------------------|
D|-----------------------------------------------------|
A|-------------2--2--4--2--------------2--2--4--2------|
E|-0--0--3--4--------------0--0--3--4------------------|


e|-----------------------------------------------------|
B|-----------------------------------------------------|
G|-----------------------------------------------------|
D|--4--4-----2--4--4--6--4--------------2--2--4--2-----|
A|--------4-----------------0--0--3--4-----------------|
E|-----------------------------------------------------|


e|------------------------------------------------||
B|------------------------------------------------||
G|------------------------------------------------||
D|------------------------------------------------||
A|-------------2--2--4--2--4--2-----2----2--4--2--||
E|-0--0--3--4--------------------4----------------||



Verse 2: 

   0:47
e|-----------------------------------------------------|
B|-----------------------------------------------------|
G|-----------------------------------------------------|
D|-----------------------------------------------------|
A|-------------2--2--4--2--------------2--2--4--2------|
E|-0--0--3--4--------------0--0--3--4------------------|


e|-----------------------------------------------||
B|-------------------------/3--3--3--3--3--3--3--||
G|-------------------------/4--4--4--4--4--4--4--||
D|-----------------------------------------------||
A|-------------2--2--4--2------------------------||
E|-0--0--3--4------------------------------------||



Chorus: 

   0:54
e|-----------------------------------------------------|
B|-----------------------------------------------------|
G|-----------------------------------------------------|
D|-------------2--2--4--2--------------2--2--4--2------|
A|-0--0--3--4--------------0--0--3--4------------------|
E|-----------------------------------------------------|


e|-----------------------------------------------------|
B|-----------------------------------------------------|
G|-----------------------------------------------------|
D|-----------------------------------------------------|
A|-------------2--2--4--2--------------2--2--4--2------|
E|-0--0--3--4--------------0--0--3--4------------------|


e|-----------------------------------------------------|
B|-----------------------------------------------------|
G|-----------------------------------------------------|
D|--4--4-----2--4--4--6--4--------------2--2--4--2-----|
A|--------4-----------------0--0--3--4-----------------|
E|-----------------------------------------------------|


e|------------------------------------------------||
B|------------------------------------------------||
G|------------------------------------------------||
D|------------------------------------------------||
A|-------------2--2--4--2--4--2-----2----2--4--2--||
E|-0--0--3--4--------------------4----------------||



Chorus:

   1:07
e|-----------------------------------------------------|
B|-----------------------------------------------------|
G|-----------------------------------------------------|
D|-----------------------------------------------------|
A|-------------2--2--4--2--------------2--2--4--2------|
E|-0--0--3--4--------------0--0--3--4------------------|


e|-----------------------------------------------------|
B|-----------------------------------------------------|
G|-----------------------------------------------------|
D|-----------------------------------------------------|
A|-------------2--2--4--2--------------2--2--4--2------|
E|-0--0--3--4--------------0--0--3--4------------------|


e|-----------------------------------------------------|
B|-----------------------------------------------------|
G|-----------------------------------------------------|
D|-------------2--2--4--2--------------2--2--4--2------|
A|-0--0--3--4--------------0--0--3--4------------------|
E|-----------------------------------------------------|


e|-----------------------------------------------------|
B|-----------------------------------------------------|
G|-----------------------------------------------------|
D|-----------------------------------------------------|
A|-------------2--2--4--2--------------2--2--4--2------|
E|-0--0--3--4--------------0--0--3--4------------------|


e|-----------------------------------------------------|
B|-----------------------------------------------------|
G|-----------------------------------------------------|
D|--4--4-----2--4--4--6--4--------------2--2--4--2-----|
A|--------4-----------------0--0--3--4-----------------|
E|-----------------------------------------------------|


e|------------------------------------------------||
B|------------------------------------------------||
G|------------------------------------------------||
D|------------------------------------------------||
A|-------------2--2--4--2--4--2-----2----2--4--2--||
E|-0--0--3--4--------------------4----------------||



Rhythm guitar for piano solo: 

   1:28
e|-----------------------------------------------------|
B|-----------------------------------------------------|
G|-----------------------------------------------------|
D|-----------------------------------------------------|
A|-------------2--2--4--2--------------2--2--4--2------|
E|-0--0--3--4--------------0--0--3--4------------------|


e|-----------------------------------------------------|
B|-------------------------/3--3--3--3--0--0-----------|
G|-------------------------/4--4--4--4--2--0-----------|
D|--------------------------------------------2--0-----|
A|-------------2--2--4--2------------------------------|
E|-0--0--3--4------------------------------------------|


e|-----------------------------------------------------|
B|-----------------------------------------------------|
G|-----------------------------------------------------|
D|-------------2--2--4--2--------------2--2--4--2------|
A|-0--0--3--4--------------0--0--3--4------------------|
E|-----------------------------------------------------|


e|-----------------------------------------------------|
B|-----------------------------------------------------|
G|-----------------------------------------------------|
D|-----------------------------------------------------|
A|-------------2--2--4--2--4--2-----2----2--4--2-------|
E|-0--0--3--4--------------------4---------------------|


e|-----------------------------------------------------|
B|-----------------------------------------------------|
G|-----------------------------------------------------|
D|--4--4-----2--4--4--6--4--------------2--2--4--2-----|
A|--------4-----------------0--0--3--4-----------------|
E|-----------------------------------------------------|


e|------------------------------------------------||
B|------------------------------------------------||
G|------------------------------------------------||
D|------------------------------------------------||
A|-------------2--2--4--2--4--2-----2----4--2--4--||
E|-0--0--3--4--------------------4----------------||



Guitar solo: 

   1:48
e|-0---0--0------0---0--0--0--0--0------0--0--0--0-----|
B|----/5------------/5--5--3--3--2--0--/5--5--5--5-----|
G|-----------------------------------------------------|
D|-----------------------------------------------------|
A|-----------------------------------------------------|
E|-----------------------------------------------------|


e|-3--0--5--0--3--0------------------------------------|
B|-5--5--5--5--5--5--/3--3--3--3--3--3---/3------------|
G|-------------------/4--4--4--4--4--4---/4---2--0-----|
D|-----------------------------------------------------|
A|-----------------------------------------------------|
E|-----------------------------------------------------|


e|-----------------------------------------------------|
B|----------3---3--------------------------------------|
G|-2--0--2--4---4--\2--0--2--0-------0-------------0h2-|
D|-------------------------------2------2p0-----0------|
A|-------------------------------------------2---------|
E|-----------------------------------------------------|


e|--------------0--0--0---0--0-------------------------|
B|---------3---/5--5--5--/5--3-------------------------|
G|-0--/4---4--------------------2--0--2--0----2b--0--2-|
D|-----------------------------------------------------|
A|-----------------------------------------------------|
E|-----------------------------------------------------|


e|-----------------------------------------------------|
B|-----------------------12--12--12--12--12------------|
G|-/4--0-----------------12--14--14--14--12------------|
D|----------2--0h2-/14-----------------------14--------|
A|-----------------------------------------------------|
E|-----------------------------------------------------|


e|-------------------12--------------------------------|
B|-------------------12--------------------------------|
G|-----12--14--12----------------12--14--12------------|
D|-14------------------------14--------------14p12-----|
A|--------------------------------------------------14-|
E|-----------------------------------------------------|


e|-----------------------------------------------------|
B|-----------------------------------------------------|
G|---------12--12--------12--14--14--14--14--14--14--14|
D|-12--14------------14--------------------------------|
A|-----------------------------------------------------|
E|-----------------------------------------------------|

[ Tab from: http://www.guitaretab.com/s/susan-tedeschi/180036.html ]
e|----------12----------------------------x------------|
B|------12------15b--12--------------------x-----------|
G|-14b-------------------14b--14--12--14----x----------|
D|--------------------------------------------14--12---|
A|-----------------------------------------------------|
E|-----------------------------------------------------|


e|-----x---------------x-------------------------------|
B|------x---------------x------------------------------|
G|-------x---------------x---------12b------12--14b--12|
D|-14------14--12--14------14--12-------14-------------|
A|-----------------------------------------------------|
E|-----------------------------------------------------|


e|--------------0---0--0---0--0---0---0--3--0--0--0----|
B|-0--0--0--/5-----/5-----/5-----/5---5--5--5--3--5----|
G|-0--0--0---------------------------------------------|
D|-----------------------------------------------------|
A|-----------------------------------------------------|
E|-----------------------------------------------------|


e|-----------------------------------------------------|
B|------12--12------12--12------12--12------12---------|
G|-/12--12--12--12--12--12--12--12--12--12--12---------|
D|-----------------------------------------------------|
A|-----------------------------------------------------|
E|-----------------------------------------------------|


e|-----------------------------------------------------|
B|------15--15--15----15--15--15--15--15--15--15-------|
G|-/16--16--16--16----16--16--16--15--16--16--16-------|
D|-----------------------------------------------------|
A|-----------------------------------------------------|
E|-----------------------------------------------------|


e|---------0--0--0--0------0--0--0--0--0--0--0--0--0---|
B|-15--15\-------------0--/5--5--5--5--5--5--3--2--0---|
G|-16--16\---------------------------------------------|
D|-----------------------------------------------------|
A|-----------------------------------------------------|
E|-----------------------------------------------------|


e|----0--3b--0------0----------------------------------|
B|-3b-----------3b-----------------3---------12--12--12|
G|----------------------2b--0--/4-----/14----12--12--12|
D|-----------------------------------------------------|
A|-----------------------------------------------------|
E|-----------------------------------------------------|


e|-----------------------------15--15--15--------------|
B|-12-----12---------------12--12--12--12--12--12------|
G|-12h14--12---------------12--12--12--12--12--12h14---|
D|------------14--12h14--------------------------------|
A|-----------------------------------------------------|
E|-----------------------------------------------------|


e|-----------------------------------------------------|
B|--------------------12--12--12-----12----12--12------|
G|--------------------12--12-12h14--12----12--12h14---|
D|-14p12------12--14-----------------------------------|
A|--------14-------------------------------------------|
E|-----------------------------------------------------|


e|-----------------------------------------------------|
B|-12--------------------------------------------------|
G|-12--------12--14--12--------------------------------|
D|-------14----------------14p12------12--14----14-----|
A|--------------------------------14-------------------|
E|-----------------------------------------------------|


e|----------------------12-------12---------||
B|------------------12------15b-------------||
G|-12--14--14--14b--------------------------||
D|------------------------------------------||
A|------------------------------------\\\---||
E|------------------------------------------||



Verse 3: 

   2:49
   E7
e|-----------------------------------------------------|
B|-9-----------------9---------------9-----9-----------|
G|-7-----------------7---------------7-----7-----------|
D|-9-----------------9---------------9-----9-----------|
A|-7-----------------7---------------7-----7-----------|
E|-----------------------------------------------------|


e|-----------------------||
B|-/3--3--3--3--3--3--3--||
G|-/4--4--4--4--4--4--4--||
D|-----------------------||
A|-----------------------||
E|-----------------------||



Chorus:

   2:56
e|-----------------------------------------------------|
B|-----------------------------------------------------|
G|-----------------------------------------------------|
D|-2-----------2--2--4--2--2-----------2--2--4--2------|
A|-0--0--3--4--------------0--0--3--4------------------|
E|-----------------------------------------------------|


e|-----------------------------------------------------|
B|-----------------------------------------------------|
G|-----------------------------------------------------|
D|-----------------------------------------------------|
A|-------------2--2--4--2--------------2--2--4--2------|
E|-0--0--3--4--------------0--0--3--4------------------|


e|-----------------------------------------------------|
B|-----------------------------------------------------|
G|-----------------------------------------------------|
D|--4--4-----2--4--4--6--4--------------2--2--4--2-----|
A|--------4-----------------0--0--3--4-----------------|
E|-----------------------------------------------------|


e|------------------------------------------------||
B|------------------------------------------------||
G|------------------------------------------------||
D|------------------------------------------------||
A|-------------2--2--4--2--4--2-----2----2--4--2--||
E|-0--0--3--4--------------------4----------------||



Rhythm guitar for organ solo:

  3:10
e|-----------------------------------------------------|
B|-----------------------------------------------------|
G|-----------------------------------------------------|
D|-----------------------------------------------------|
A|-------------2--2--4--2--------------2--2--4--2------|
E|-0--0--3--4--------------0--0--3--4------------------|


e|-----------------------------------------------------|
B|-------------------------/3--3--3--3--0--0-----------|
G|-------------------------/4--4--4--4--2--0-----------|
D|--------------------------------------------2--0-----|
A|-------------2--2--4--2------------------------------|
E|-0--0--3--4------------------------------------------|


e|-----------------------------------------------------|
B|-----------------------------------------------------|
G|-----------------------------------------------------|
D|-------------2--2--4--2--------------2--2--4--2------|
A|-0--0--3--4--------------0--0--3--4------------------|
E|-----------------------------------------------------|


e|-----------------------------------------------------|
B|-----------------------------------------------------|
G|-----------------------------------------------------|
D|-----------------------------------------------------|
A|-------------2--2--4--2--4--2-----2----2--4--2-------|
E|-0--0--3--4--------------------4---------------------|


e|-----------------------------------------------------|
B|-----------------------------------------------------|
G|-----------------------------------------------------|
D|--4--4-----2--4--4--6--4--------------2--2--4--2-----|
A|--------4-----------------0--0--3--4-----------------|
E|-----------------------------------------------------|


e|------------------------------------------------||
B|------------------------------------------------||
G|------------------------------------------------||
D|------------------------------------------------||
A|-------------2--2--4--2--4--2-----2----4--2--4--||
E|-0--0--3--4--------------------4----------------||


   3:30
e|-----------------------------------------------------|
B|-----------------------------------------------------|
G|-----------------------------------------------------|
D|-----------------------------------------------------|
A|-------------2--2--4--2--------------2--2--4--2------|
E|-0--0--3--4--------------0--0--3--4------------------|


e|--------------------------0--0--0--0--0--0-----------|
B|-------------------------/5--5--5--5--5--5---0--0----|
G|--------------------------------------------\2--0----|
D|-----------------------------------------------------|
A|-------------2--2--4--2------------------------------|
E|-0--0--3--4------------------------------------------|


e|-----------------------------------------------------|
B|-----------------------------------------------------|
G|-----------------------------------------------------|
D|-------------2--2--4--2--------------2--2--4--2------|
A|-0--0--3--4--------------0--0--3--4------------------|
E|-----------------------------------------------------|


e|-----------------------------------------------------|
B|-----------------------------------------------------|
G|-----------------------------------------------------|
D|-----------------------------------------------------|
A|-------------2--2--4--2--4--2-----2----2--4--2-------|
E|-0--0--3--4--------------------4---------------------|


e|-----------------------------------------------------|
B|-----------------------------------------------------|
G|-----------------------------------------------------|
D|--4--4-----2--4--4--6--4--------------2--2--4--2-----|
A|--------4-----------------0--0--3--4-----------------|
E|-----------------------------------------------------|


e|------------------------------------------------||
B|------------------------------------------------||
G|------------------------------------------------||
D|------------------------------------------------||
A|-------------2--2--4--2--4--2-----2----4--2--4--||
E|-0--0--3--4--------------------4----------------||



Verse 4:

   3:50
e|-----------------------------------------------------|
B|-----------------------------------------------------|
G|-----------------------------------------------------|
D|-----------------------------------------------------|
A|-------------2--2--4--2--------------2--2--4--2------|
E|-0--0--3--4--------------0--0--3--4------------------|


e|-----------------------------------------------||
B|-------------------------/3--3--3--3--3--3--3--||
G|-------------------------/4--4--4--4--4--4--4--||
D|-----------------------------------------------||
A|-------------2--2--4--2------------------------||
E|-0--0--3--4------------------------------------||



Chorus: 

   3:56
e|-----------------------------------------------------|
B|-----------------------------------------------------|
G|-----------------------------------------------------|
D|-------------2--2--4--2--------------2--2--4--2------|
A|-0--0--3--4--------------0--0--3--4------------------|
E|-----------------------------------------------------|


e|-----------------------------------------------------|
B|-----------------------------------------------------|
G|-----------------------------------------------------|
D|-----------------------------------------------------|
A|-------------2--2--4--2--------------2--2--4--2------|
E|-0--0--3--4--------------0--0--3--4------------------|


e|-----------------------------------------------------|
B|-----------------------------------------------------|
G|-----------------------------------------------------|
D|--4--4-----2--4--4--6--4--------------2--2--4--2-----|
A|--------4-----------------0--0--3--4-----------------|
E|-----------------------------------------------------|


e|------------------------------------------------||
B|------------------------------------------------||
G|------------------------------------------------||
D|------------------------------------------------||
A|-------------2--2--4--2--4--2-----2----2--4--2--||
E|-0--0--3--4--------------------4----------------||



Chorus:

   4:10
e|-----------------------------------------------------|
B|-----------------------------------------------------|
G|-----------------------------------------------------|
D|-----------------------------------------------------|
A|-------------2--2--4--2--------------2--2--4--2------|
E|-0--0--3--4--------------0--0--3--4------------------|


e|-----------------------------------------------------|
B|-----------------------------------------------------|
G|-----------------------------------------------------|
D|-----------------------------------------------------|
A|-------------2--2--4--2--------------2--2--4--2------|
E|-0--0--3--4--------------0--0--3--4------------------|


e|-----------------------------------------------------|
B|-----------------------------------------------------|
G|-----------------------------------------------------|
D|-------------2--2--4--2--------------2--2--4--2------|
A|-0--0--3--4--------------0--0--3--4------------------|
E|-----------------------------------------------------|


e|-----------------------------------------------------|
B|-----------------------------------------------------|
G|-----------------------------------------------------|
D|-----------------------------------------------------|
A|-------------2--2--4--2--------------2--2--4--2------|
E|-0--0--3--4--------------0--0--3--4------------------|


e|--------------------------||
B|--------------------------||
G|--------------------------||
D|--4--4-----2--4--4--6--4--||
A|--------4-----------------||
E|--------------------------||



Outro:
      
   4:27                                       E7
e|-----0--0--0--0-----------------------------0-------||
B|-0--/5-----3--0--/3-------------------------3-------||
G|-----------------/4--4--\2--0---------------1-------||
D|-------------------------------2--0h2-------2-------||
A|--------------------------------------------2-------||
E|----------------------------------------------------||
Related for I Fell In Love Live tab