Song name
# A B C D E F G H I J K L M N O P Q R S T U V W X Y Z

Susan Tedeschi - Hampmotized Live tab

Help us improve GuitareTab! Take a short survey!
Band/Artist: Susan Tedeschi
Song Title: Hampmotized
Album Title: Live From Austin TX
Tuning: Standard
Part: Intro
Transcribed by: aig91



|  h = hammer on
|  p = pull off
|  b = full bend
|  ^ = half bend/partial bend
|  r = release bend
|  / = slide up
|  \ = slide down
|  x = muted note



   0:09                       0:16
e|-/15-------------------------------------------------------|
B|-----------------------------------------------------------|
G|-------------------------------------3--------------3------|
D|-------------------------------3--5-----3--3h5p3h5---------|
A|----------------------------5------------------------------|
E|-----------------------------------------------------------|


e|-----------------------------------------------------------|
B|-----------------------------------------------------------|
G|----------3-----------------------------------5------------|
D|----3--5-----3--3h5--3-----3--5---------3--5-----3--5------|
A|-5----------------------5------------5---------------------|
E|-----------------------------------------------------------|


e|-----------------------------------------------------------|
B|-----------------------------------------------------------|
G|-3h5p3h5p3h5p3h5p3h5p3h5-----3h5--5--5--5--5p3p0-----------|
D|--------------------------------------------------3--3h5---|
A|-----------------------------------------------------------|
E|-----------------------------------------------------------|


e|--------------------||
B|--------------------||
G|--------------------||
D|-3h5p3------3--5----||
A|--------5-----------||
E|--------------------||
Related for Hampmotized Live tab