Guitaretab - guitar tabs
Song name
# A B C D E F G H I J K L M N O P Q R S T U V W X Y Z

Susan Tedeschi - Sweet Forgiveness tab

Band/Artist: Susan Tedeschi
Song Title: Sweet Forgiveness
Album Title: Hope and Desire (2005) 
Part: Solo 
Transcribed by: aig91


|  h = hammer on
|  p = pull off
|  b = full bend
|  ^ = 1  step bend
|  r = release bend
|  / = slide up
|  \ = slide down
|  ~ = vibrato


e|--------------------------------------------------------------------|
B|--------------------------16----------------------------------------|
G|------13--15brb~-----15b------15b-----15b-15brbrp13--15brbr~~------|
D|-/15----------------------------------------------------------------|
A|--------------------------------------------------------------------|
E|--------------------------------------------------------------------|


e|---------------------------------------------------------16br~------|
B|----------16--16h18--16~--16h18--------16h18--16--16----------------|
G|-13--/17---------------------------17-------------------------------|
D|--------------------------------------------------------------------|
A|--------------------------------------------------------------------|
E|--------------------------------------------------------------------|

[ Tab from: http://www.guitaretab.com/s/susan-tedeschi/186181.html ]
e|-16~~---16~--16~-----------16---18brb---18br^rbrp16-----------------|
B|--------------------16h18----------------------------18--18--16-----|
G|-----------------------------------------------------17--17------15-|
D|--------------------------------------------------------------------|
A|--------------------------------------------------------------------|
E|--------------------------------------------------------------------|


e|----------------------------15--------------------------------------|
B|------------------------16------16----------------------------------|
G|-13--13h15--13~---15b---------------15br--13--15------13--15brbrp13-|
D|--------------------------------------------------15----------------|
A|--------------------------------------------------------------------|
E|--------------------------------------------------------------------|


e|--------------------------------------------------------------------|
B|----------------------------16---16---16---16---16------------------|
G|-----13----13~----------13--15b--15b--15b--15b--15br--13~-----------|
D|-15-------------13--15----------------------------------------------|
A|--------------------------------------------------------------------|
E|--------------------------------------------------------------------|
Related for Sweet Forgiveness tab