Song name
# A B C D E F G H I J K L M N O P Q R S T U V W X Y Z

Susan Tedeschi - Talking About chords

Highlighted       Show chord diagrams
Band/Artist: Susan Tedeschi
Song Title: Talking About
Album Title: Back To The River (2008) 
Note: There are 2 different A chords used. Youll have to listen 
to the song to figure out when to use which A chord for which part.
the A barre chord is pretty much only used when the lyrics say Id
do it again. 



Chords used:

     E     A     A7    A6           G     A         E7   E6 Ammaj7
e|---0-----5-----3-----2------------3-----5---------0----0----0-------|
B|---0-----2-----2-----2------------3-----5---------3----2----1-------|
G|---1-----2-----2-----2------------4-----6---------1----1----1-------|
D|---2-----2-----2-----2------------5-----7---------2----2----2-------|
A|---2-----0-----0-----0------------5-----7---------2----2------------|
E|---0------------------------------3-----5---------------------------|
 

   Riff 1                                                               
e|---------------------------------------------------------------------------|
B|---------------------------------------------------------------------------|
G|---------------------------------------------------------------------------|
D|----5--7--7b----7--5--7--5--------5--7--5----------5--7--7b----7--5--7-5~~|
A|-7--------------------------7--7-----------7----7--------------------------|
E|---------------------------------------------------------------------------|



(Verse 1) 

          E 
 When you find it in your heart


 Look this way and Ill never stop

 
 When you cant find the words to say


 Ill know what you mean anyways

          A  A7  A  A7
 And you know   what youre doing

 A         A7    A   A6
 Get right on up to  it

        E
 I said Lord now its alright

 
 Come on just take your time




(Bridge)

        G               
 If you feel the night and the mood is tight

         A
 But you know it

             G
 And you can see the light but theres no end in sight

         A
 But you know




(Chorus)

 Riff 1 
 I tell you somebody knows what youre talking about


 I tell you somebody knows 

 Riff 1
 I tell you somebody knows what youre talking about


 I tell you somebody knows 




(Verse 2)

         E
 You can feel it in your brain


 When things dont feel quite the same


 And you make it all about yourself


 Get rid of all the hate and all the self doubt

 A       A7    A                 A7
 Oh Lord,    youll be rocking tonight

 A        A7      A             A6   E
 Somebody    will make you feel    alright,    feel alright now




(Bridge)

               G
 Cause if you feel the night and the mood is tight

         A
 And you know it

             G
 And you can see the light but theres no end in sight

         A
 And you know



 
                 E       G
 That Id do it again

     A              G
 Oh, I would gladly do it

                E         G
 Oh, Id do it again, Oh again now

     A              G
 Oh, I would gladly do it

                E     G
 Oh, Id do it again

     A              G
 Oh, I would gladly do it
 
                E         G
 Oh, Id do it again, Oh again now

     A              G 
 Oh, I would gladly do it

                E
 Yes Id do it again




(Guitar solo)

E7   E6   Ammaj7   E    E7   E6   Ammaj7   E

E7   E6   Ammaj7   E    E7   E6   Ammaj7   E




(Chorus)

 Riff 1
 I tell you somebody knows what youre talking about


 I tell you somebody knows 

 Riff 1
 I tell you somebody knows what youre talking about


 I tell you somebody knows 


 
                E      G
 And Id do it again

     A              G    
 Oh, I would gladly do it
 
                E         G
 Oh, Id do it again, Oh again now

     A              G
 Oh, I would gladly do it

                E     G
 Oh, Id do it again

     A              G
 Oh, I would gladly do it
 
                E       G
 Oh, Id do it again

     A              G
 Oh, I would gladly,  gladly do it



(Outro)


E   G   A   G  (Repeat till end) 
Tap to rate this tab
# A B C D E F G H I J K L M N O P Q R S T U V W X Y Z