Guitaretab - guitar tabs
Song name
# A B C D E F G H I J K L M N O P Q R S T U V W X Y Z

Susperia - Blood On My Hands tab

Song:      Blood On My Hands
Artist:    Susperia (www.susperia.net)
Album:     Predominance
Tuning:    E
Tabbed by: Qth - quorthon@mailcity.com
COMENTS:

NOt complex song, lacks of solo and needs some corrections.
Comments, corrections... email me

Key:
/ \=slide
p=pull off
h=hammer on
~=vibrato
=muted
"=Thrill


----------------------------------------------------------------------

RIFF 1 [MAIN]
|--------------------------------------------------------------------|
|--------------------------------------------------------------------|
|--------------------------------------------------------------------|
|-7-----7-----7---9------9-----9----10-----10-----10---6-----6-----6-|
|-5-----5-----5---7------7-----7----8------8------8----4-----4-----4-|
|---000---0-0---0----000---0-0---0-----000----0-0----0---000---0-0---|
                                           

RIFF 2
|-----------------------------------------------|
|-----------------------------------------------|
|-----------------------------------------------|
|------78-7~-------7~------------78-7~----------|
|-------------10~------7~---------------10~-----|
|--10------------------------10--------------8~-|


RIFF 3 (NOT SURE!)
|------------------|
|------------------|
|------------------|
|-5555555666666666-|
|-3333333444444444-|
|------------------|

RIFF 4
|--------------------------------------|
|-----------------------------2--------|
|----------------------------3-3-------|
|---------------------------5---5------|
|--5-----2-----5-----2-----4-----4-----|
|--3-000-0-000-3-000-0----2------------|
            

RIFF 5 [SOLO] [NOT DONE]
|--|
|--|
|--|
|--|
|--|
|--|


RIFF 6
|-------------|
|-------------|
|-------------|
|-------------|
|-22-22-22-22-|
|-00-00-00-00-|
     
----------------------------------------------------------------------

Song Composition

KeybIntro
RIFF 1 (x4)

RIFF 1 (x4)

RIFF 1 (x1)

RIFF 2 (x6)

RIFF 1 (x4)
RIFF 2 (x6)

RIFF 3 (x1)
RIFF 4 (x1)
RIFF 3 (x1)
RIFF 4 (x1)
RIFF 3 (x1)
RIFF 4 (x1)
RIFF 3 (x1)
RIFF 4 (x8)

RIFF 1 (x4)

RIFF 2 (x6) - Under Solo
RIFF 2 (x3) - With RIFF 6 over it!
RIFF 6 (x2)
[ Tab from: http://www.guitaretab.com/s/susperia/128524.html ]
Related for Blood On My Hands tab