Guitaretab - guitar tabs
Song name
# A B C D E F G H I J K L M N O P Q R S T U V W X Y Z

Susperia - Specimen tab

Song:      Specimen
Artist:    Susperia (www.susperia.net)
Album:     Predominance
Tuning:    E
Tabbed by: Qth - quorthon@mailcity.com

it needs a lot of correction .... but it's close...

Email me Corrections/suggestions/anything.... 


Key:
/ \=slide
p=pull off
h=hammer on
~=vibrato
и=muted

Riff 1
|--------------------------------------------------------------------|
|--------------------------------------------------------------------|
|------------------------3-------------------------------------------|
|-5-35-----------5-35----3-3-6-5-35----------------------------------|
|-5-35-----------5-35----1-3-6-5-35----------------------------------|
|-3-13-000000000-3-13------1-4-3-13----------------------------------|
       иииииииии


Riff 2A
|--------------------------------------------------------------------|
|--------------------------------------------------------------------|
|-------7-8-----7-5-------5-----5------------------------------------|
|---555--5--555--5--555-75--555--58----------------------------------|
|--------------------------------------------------------------------|
|--------------------------------------------------------------------|
    иии  и  иии  и  иии  и  иии  и

Riff 2B
|--------------------------------------------------------------------|
|--------------------------------------------------------------------|
|--------------------------------------------------------------------|
|-------7-8-----7-5-------5-----5------------------------------------|
|---555--5--555--5--555-75--555--57----------------------------------|
|--------------------------------------------------------------------|
    иии  и  иии  и  иии  и  иии  и


Riff 3A (under Riff2A)
|-------------------|
|-------------------|
|-------------------|
|-55555555555555555-|
|-55555555555555555-|
|-33333333333333333-|
  иииииииииииииииии

Riff 3B (under Riff2B)
|-------------------|
|-------------------|
|-------------------|
|-22222222222222222-|
|-22222222222222222-|
|-00000000000000000-|
  иииииииииииииииии

Riff4 (Chorus)
|--------------------------------------------------------------------|
|--------------------------------------------------------------------|
|--------------------------------------------------------------------|
|-3~--3~--5~-----------3~--3~--5~------------------------------------|
|-1~--3~--5~-----------1~--3~--5~------------------------------------|
|-----1~--3~-000-000-------1~--3~--000-000-00------------------------|
             иии иии               иии иии ии

Riff5 
Guitar 1
|-------------------------|
|-------------------------|
|---4-----5-----2---- 4---|
|--4-4---5-5---2-2---4-4--|
|-2---2-3---3-0---0-2---2-|
|-------------------------|
Guitar 2 
|-------------------------|
|-------------------------|
|-4~----5~----2~----4~----|
|-4~----5~----2~----4~----|
|-2~----3~----0~----2~----|
|-------------------------|



Riff 6
|--------------------------------------------------------------------|
|--------------------------------------------------------------------|
|--------------------------------------------------------------------|
|-------------------------------------------------------6------------|
|----7-8----7-5------7----5--------5-6----5-3------5------5----------|
|-555-5--555-5--55585--555-57---333-3--333-3--33353--555-5-----------|
  иии и  иии и  иии и  иии и    иии и  иии и  иии и  иии и

----------------------------------------------------------------------

Song Composition

Riff1  (x1) (Only Guitar 1)
Riff1  (x1) (Both Guitars)
Riff1  (x6) (All Inst.)
Riff2A (x2) (All Alone)
Riff2B (x2) (Rth. Guitar plays Riff3B)
Riff2A (x2) (Rth. Guitar plays Riff3A)
Riff2B (x2) (Rth. Guitar plays Riff3B)
Riff2A (x2) (Rth. Guitar plays Riff3A)

Riff1  (x6)
Riff2A (x2) (Rth. Guitar plays Riff3A)
Riff2B (x2) (Rth. Guitar plays Riff3B)

Riff4  (x4) (Chorus - Both guitars)

Riff5  (x8)
Riff6  (x1) (Rth.Guitar Plays Riff3A)
Riff6  (x1) (Rth.Guitar Plays Riff3B)
Riff6  (x1) (Rth.Guitar Plays Riff3A)
Riff6  (x1) (Rth.Guitar Plays Riff3B)
Riff5  (x8)

Riff1  (x4)
Riff2A (x2) (Rth. Guitar plays Riff3A)
Riff2B (x2) (Rth. Guitar plays Riff3B)

Riff4  (x4) (Chorus - Both guitars)
[ Tab from: http://www.guitaretab.com/s/susperia/43924.html ]
Related for Specimen tab