Song name
# A B C D E F G H I J K L M N O P Q R S T U V W X Y Z

Susperia - Dead Mans World tab

Susperia – Dead man’s world
From the album Vindication

Tuning: all strings one whole step down to D

Riff 1 Intro (guitar 2 plays with a phaser in the with guitar 1)
|---------------------------------------|
|---------------------------------------|
|---------------------------------------|
|---------------------------------------|
|-4-4-4-4---4-4-4-4---4-4-4-4---4-4-4-5-|
|-2-2-2-2---2-2-2-2---2-2-2-2---2-2-2-3-|


Riff 2 Main riff
|-------------------------------------------------|
|-------------------------------------------------|
|-------------------------------------------------|
|-------------------------------------------------|
|-4---4-4-4-4-4---4-4-4-4-4---4-4-4-4-5-5-5-2-2-2-|
|-2---2-2-2-2-2---2-2-2-2-2---2-2-2-2-3-3-3-0-0-0-|
P.M whole riff

Riff 2 Main riff cont
|-------------------------------------------------------------------------|
|-------------------------------------------------------------------------|
|-------------------------------------------------------------------------|
|-------------------------------------------------------------------------|
|-4-4-4-4-2-2-2-2-2-2-2-2-5-5-5-5-2-2-2-2-2-2-2-2-3-3-2-2-2-2-2-2-2-2-2-8-|
|-2-2-2-2-0-0-0-0-0-0-0-0-3-3-3-3-0-0-0-0-0-0-0-0-1-1-0-0-0-0-0-0-0-0-0-6-|
          P.M.-----------           P.M.---------     P.M.-------------

Riff 3
|---------------------------------------------------------------------------------------|
|---------------------------------------------------------------------------------------|
|---------------------------------------------------------------------------------------|
|----10-\-9-/-10-7-9-9-----10-\-9-/-10----------10-\-9-/-10-7-9-9-----10-\-9-/-10-------|
|-2--8--\-7-/-8--5-7-7---2-8--\-7-/-8--3-6-2--2-8--\-7-/-8--5-7-7--2-8--\-7-/-8---8-8-8-|
|-0----------------------0-------------1-4-3--0--------------------0--------------6-6-6-|






Riff 4
|------------------------------|
|------------------------------|
|------------------------------|
|----9--8--5--7--4--5---x-x-x--|
|-2--7--6--3--5--2--3---x-x-x--|
|-0---------------------x-x-x--|
	               P.M.-

Riff 5 end song
|-------------------|
|-------------------|
|-------------------|
|-------------------|
|-4-4-4-4---5-4-3-2-|
|-2-2-2-2---3-2-1-0-|
	   P.M.---

I haven’t bothered putting down how many times you should play each riff.
Just listen to the cd and you’ll find out. All the riffs are here and I
think they’re 99% accurate.
Tap to rate this tab
# A B C D E F G H I J K L M N O P Q R S T U V W X Y Z