Song name
# A B C D E F G H I J K L M N O P Q R S T U V W X Y Z

Susperia - Of Hate We Breed tab

Help us improve GuitareTab! Take a short survey!
Susperia - Of hate we breed
From the album Predominance

Tabbed by Vebjørn Flaata Gulli
E-mail: Vflaata@yahoo.com

Tuning: one whole step down to d

Riff 1
|------------------|
|------------------|
|------------------|
|-9-\-4/5-2--2-4-5-|
|-7-\-2/3-0--0-2-3-|
|-0----------------|

Riff 2
|----------------------------------------------------------------------------|
|----------------------------------------------------------------------------|
|----------------------------------------------------------------------------|
|----------------------------------------------------------------------------|
|-7------7----7------8------5----6------7------7----7------8------4----5-----|
|---0000---00---0000---0000---00---0000---0000---00---0000---0000---00---0000|
    P.M.   --   ----   ----   --   ----   ----   --   ----   ----   --

Riff 3
|---------------------------------------------------------|
|---------------------------------------------------------|
|---------------------------------------------------------|
|-9-10-9----------------------10-8-9----------------------|
|-7-8--7----------------------8--6-7----------------------|
|--------00000000000000000000--------00000000000000000000-|
         P.M.----------------        --------------------

Riff 4
|-------------------------------------------------------------|
|-------------------------------------------------------------|
|-------------------------------------------------------------|
|-------------------------------------------------------------|
|----7"-9"-10"----7"-9"-10"----10"-9"-10"-12"-10"-12"-14"-10"-|
|-0"-----------0"-----------8"--------------------------------|

Riff 4 (cont)
|-------------------------------------------------------------|
|-------------------------------------------------------------|
|-------------------------------------------------------------|
|-------------------------------------------------------------|
|----7"-9"-10"----7"-9"-10"-----10"-9"-10"-12"-10"-12"-10"-9"-|
|-0"-----------0"------------8"-------------------------------|

Riff 4 (cont)
|-------------------------------------------------------------|
|-------------------------------------------------------------|
|-------------------------------------------------------------|
|----7"-9"-10"----7"-9"-10"----10"-9"-10"-12"-10"-12"-14"-10"-|
|-0"-----------0"-----------8"--------------------------------|
|-------------------------------------------------------------|

Riff 4 (cont)
|-------------------------------------------------------------|
|-------------------------------------------------------------|
|-------------------------------------------------------------|
|----7"-9"-10"----7"-9"-10"-----10"-9"-10"-12"-10"-12"-10"-9"-|
|-0"-----------0"------------8"-------------------------------|
|-------------------------------------------------------------|

Riff 5
|-------------------|
|-------------------|
|-------------------|
|-------------------|
|-2---2-3-5-6-5-3-2-|
|-0---0-1-3-4-3-1-0-|
      P.M.-------

Riff 6 (during solo)
|-----------------------------------------------|
|-----------------------------------------------|
|-----------------------------------------------|
|-----------------------------------------------|
|---------------------------------2-3-5-6-5-3-2-|
|-00000000-000000000000000-000000-0-1-3-4-3-1-0-|
P.M.-------------------------------------------

" = tremolo picking.

Related for Of Hate We Breed tab