Song name
# A B C D E F G H I J K L M N O P Q R S T U V W X Y Z

Susumu Hirasawa - Tatsujin No Yama An Expert Mountain tab

-------------------------------------------------------------------------------
                Tatsujin no Yama / An Expert Mountain - Susumu Hirasawa
-------------------------------------------------------------------------------
Tabbed by: Antimonesia
Twitter: @Antimonesia


E|------------------------------------------------------------------------------|
B|------------------------------------------------------------------------------|
G|----------------------------------------------------------------11-12---------|
D|-----------------------------------------------------------9-12-------9-12----|
A|------------------------------------------------------------------------------|
E|------------------------------------------------------------------------------|

E|----------------------12-----------------------------------------17-----15-----|
B|----------------------------------------------15-------------------------------|
G|-11-----------\-12-11---11-------11--------------------------------------------|
D|------------------------------------12-----------------------------------------|
A|---------------------------12-10-----------------------------------------------|
E|--------------------------------------------------7----------------------------|


E|-14-----14-12------------------------7-10--7--/15----14-14--------------------|
B|------------------------------------------------------------------------------|
G|---14-12-----12-11------11-------7-9---------------------14-12----11-12-11----|
D|-------------------12-10---12-------------------------------------------------|
A|------------------------------9-7---------------------------------------------|
E|------------------------------------------------------------------------------|

e|------19-0-17----------19-0-17-0------0-19-0-17-0-----0-19-0-20-0-19-0-15----------|
B|-0-17--------15-0---17-----------17-0-------------17-0---------------------0-15----|
G|------------------16---------------------------------------------------------------|
D|-----------------------------------------------------------------------------------|
A|-----------------------------------------------------------------------------------|
E|-----------------------------------------------------------------------------------|

e|-----------------------------------------------------------------------------|
B|-----------------15-----------------------15------15---17-15-----------------|
G|-----------------------------------------------------------------------------|
D|---------0-12-14-----------------0-12-14--------------------14-12------------|
A|-----------------------------------------------------------------------------|
E|-0-12-14-----------------0-12-14----------------------------------14-12------|

e|---------------12--------------12---------------------------------------------|
B|------------------------------------------------------------------------------|
G|-12----11-12-----11-------12------11------------------------------------------|
D|------------------------------------------------------------------------------|
A|------------------------------------------------------------------------------|
E|------------------------------------------destroy-----------------------------|


************************************

| /   slide up
| \   slide down
| ~   vibrato

************************************
Tap to rate this tab
# A B C D E F G H I J K L M N O P Q R S T U V W X Y Z