Suvi Terasniska - Jos Menet Pois tab

-------------------------------------------------------------------------
JOS MENET POIS – Suvi Teräsniska
-------------------------------------------------------------------------
Tabbed by: Kengus

Official website: www.suviterasniska.fi

Standard tuning
Capo on fourth fret!

INTRO (& VERSE)
   Am/E          Dm/F          Bm7/D         Am/E
e|---------------------------------------------------------|
B|---1------1------3------3------0------0------1------1----|
G|-----2------2------2------2------2------2------2------2--|
D|-2------2------3------3------0------0------2------2------|
A|---------------------------------------------------------|
E|---------------------------------------------------------|
   Am/E  (G6sus2) Dm/F   Am/E   Bm7/D         Am/C
e|-----------0---------------------------------------------|
B|---1--------------3------1------0------0-----------------|
G|-----2-------2------2------2------2------2------2------2-|
D|-2------/5------3------2------0------0--------2------2---|
A|--------------------------------------------3------3-----|
E|---------------------------------------------------------|

VERSE I
    Am/E              Dm/F                 Bm7/D            Am/E
Aamuauringon sivellin värittää maan, värit hauraat sulattaa jään
     Am/E     (G6sus2)    Dm/F      Am/E     Bm7/D              Am/C
Sinä olet niin kaunis, en henkeä saa, annoit aurinkos mua lämmittää

CHORUS (strumming)
          Am                 F
Jos menet pois, mitä minulle jää?
          G                 Am
Jos menet pois, kesä tää häviää
          Am                  F                   G               Am/E...
Jos menet pois, joet jäätyvät taas, ja huurtumaan saat pihamaan pihlajan

INTERLUDE
      ...(G6sus2) Dm/F   Am/E   Bm7/D 
e|-----------0---------------------------------|
B|---1--------------3------1------0------0-----|
G|-----2-------2------2------2------2----------|
D|-2------/5------3------2------0------0---0---|
A|---------------------------------------------|
E|---------------------------------------------|

VERSE II
      Am/E           Dm/F                  Bm7/D             Am/E
Pohjantuuli liekillä leikittelee, mut valo lohtunsa tuoda jo saa
     Am/E     (G6sus2)     Dm/F      Am/E   Bm7/D            Am/C
Valo seinillä kuin köynnös kiemurtelee, saa puheesi sen kukkimaan

CHORUS (strumming)
          Am                 F
Jos menet pois, mitä minulle jää?
          G                 Am
Jos menet pois, kesä tää häviää
          Am                  F                   G                 Am
Jos menet pois, joet jäätyvät taas, ja huurtumaan saat pihamaan pihlajan

BRIDGE (strumming)
            G   Dm
Taivas halkeaa
                  G      Dm
Rakkaus päällemme sataa
                 G     Dm
Lumen, jään sulattaa
F                Am/E...
   Sade tää armahtaa

INTERLUDE
      ...(G6sus2) Dm/F   Am/E   Bm7/D 
e|-----------0---------------------------------|
B|---1--------------3------1------0------0-----|
G|-----2-------2------2------2------2----------|
D|-2------/5------3------2------0------0---0---|
A|---------------------------------------------|
E|---------------------------------------------|

VERSE III
     Am/E                 Dm/F               Bm7/D             Am/E
Sinä olet niin kaunis, en henkeä saa, hetket unta on vain haihtuvaa
     Am/E     (G6sus2)   Dm/F     Am/E       Bm7/D             Am/C
Sinä hymyilet kauniimmin kuin aiemmin, sulta hetkeksi rauhaa en saa

CHORUS (strumming)
          Am                 F
Jos menet pois, mitä minulle jää?
          G                 Am
Jos menet pois, kesä tää häviää
          Am                  F                  G                Am/E...
Jos menet pois, joet jäätyvät taas, ja huurtumaan saat pihamaan pihlajan

OUTRO
...Dm/F   Bm7/D   Am/E

     Am/E     (G6sus2)     Dm/F      Am/E   Bm7/D            Am/C  Am
Sinä olet niin kaunis, en henkeä saa, hetket unta on vain haihtuvaa.

OUTRO =
   Am/E          Dm/F          Bm7/D         Am/E
e|---------------------------------------------------------|
B|---1------1------3------3------0------0------1------1----|
G|-----2------2------2------2------2------2------2------2--|
D|-2------2------3------3------0------0------2------2------|
A|---------------------------------------------------------|
E|---------------------------------------------------------|
   Am/E  (G6sus2) Dm/F   Am/E   Bm7/D         Am/C          Am
e|-----------0-------------------------------------------------|
B|---1--------------3------1------0------0------1------0-------|
G|-----2-------2------2------2------2------2------2---------2--|
D|-2------/5------3------2------0------0-------------2---2-----|
A|--------------------------------------------3-------------0--|
E|-------------------------------------------------------------|

=========================================================================
Tap to rate this tab
 
# A B C D E F G H I J K L M N O P Q R S T U V W X Y Z