Song name
# A B C D E F G H I J K L M N O P Q R S T U V W X Y Z

Suzanne Vega - Luka tab

-------------------------------------------------------------------------------
                             LUKA - Suzanne Vega
-------------------------------------------------------------------------------
Tabbed by: Warcrash

Tuning: standard

e|------------0--------0----------0-----|------------0--------0----------0-----|
B|----------0---0----0---0----0-----0---|----------0---0----0---0----0-----0---|
G|---1-1--4--------2--------4---4-----4-|---1-1--4--------2--------4---4-----4-|
D|---2-2----4--------2--------4---------|---2-2----4--------2--------4---------|
A|---2-2--2--------0--------2-----------|---2-2--2--------0--------2-----------|
E|-0------------------------------------|-0------------------------------------|
My name Luka. I live on the second floor. I live upstairs from you. Yes, I think 
you've seen me before.

e|-0---0-------0--------0-------0---|-0---0-------0--------0-------0---|
B|-------0-------0----0---0---0---0-|-------0-------0----0---0---0---0-|
G|------------------4-------4-------|------------------4-------4-------|
D|---6-------6--------4-------4-----|---6-------6--------4-------4-----|
A|-4-------4--------2-------2-------|-4-------4--------2-------2-------|
E|----------------------------------|----------------------------------|
If you hear something late at night, some kind of trouble, some kind of fight,

e|------------0-------0---|------------0-------0---|------------0-------0---|
B|---0-0----0---0---0---0-|---0-0----0---0---0---0-|---0-0----0---0---0---0-|
G|---2-2--4-------4-------|---2-2--4-------4-------|---2-2--4-------4-------|
D|---2-2----4-------4-----|---2-2----4-------4-----|---2-2----4-------4-----|
A|-0------2-------2-------|-0------2-------2-------|-0------2-------2-------|
E|------------------------|------------------------|------------------------|
just don't ask me what it was. Just don't ask me what it was. Just don't ask me what it was.


1. Verse
My name Luka. I live on the second floor.
I live upstairs from you. Yes, I think you've seen me before.
If you hear something late at night,
some kind of trouble, some kind of fight,
just don't ask me what it was.
Just don't ask me what it was.
Just don't ask me what it was.

2. Verse
I think it's, because I'm clumsy. I try not to talk too loud.
Maybe it's, because I'm crazy. I try not to act too proud.
They only hit until you cry. And after that you don't ask why.
You just don't argue anymore.
You just don't argue anymore.
You just don't argue anymore.

3. Verse
Yes I think I'm okay. Walked into the door again.
Well, if you ask that's what I'll say. And it's not your business anyway.
I guess I'd like to be alone. With nothing broken, nothing thrown
Just don't ask me how I am.
Just don't ask me how I am.
Just don't ask me how I am.

4. Verse
My name Luka. I live on the second floor.
I live upstairs from you. Yes, I think you've seen me before.
If you hear something late at night,
some kind of trouble, some kind of fight,
some kind of trouble, some kind of fight,
just don't ask me what it was.
Just don't ask me what it was.
Just don't ask me what it was.

They only hit until you cry. And after that you don't ask why.
You just don't argue anymore.
You just don't argue anymore.
You just don't argue anymore.
Tap to rate this tab
# A B C D E F G H I J K L M N O P Q R S T U V W X Y Z