Guitaretab - guitar tabs
Song name
# A B C D E F G H I J K L M N O P Q R S T U V W X Y Z

Svartsot - Gravollet tab

Song: Gravollet
Album: Ravnenes Saga

You'll have to figure out the tempo and timing yourself, but this is the tabs I use, and 
sˇunds fair to me:P

0.15
e|------------------------------------------------|
B|------------------------------------------------|
G|------------------------------------------------|
D|------------------------------------------------|
A|55--------------55--------------55--------------|
E|--------77--------------77--------------77------|

0.23
e|-----------------------------------|
B|-----------------------------------|
G|-----------------------------------|
D|-----------------------------------|
A|55------55------55------55--5-5555-|
E|----77------77------77-------------|

0.30
(main riff)
e|-------------------------------------------------|
B|-------------------------------------------------|
G|---------------------------4-4440p2-0---020------|
D|-------------------------------------4-4---4022--|
A|55------5-754-----4574---------------------------|
E|----77-------577-7----577------------------------| X 3

Just before the verse go:

e|---------|
B|---------|
G|-020-----|
D|4---4022-|
A|---------|
E|---------|

Verse:

1.00
e|------------------------------------------------------------------|
B|------------------------------------------------------------------|
G|------------------------------------44p4p4p4----------------------|
D|22p2p2p2-44p4p4p4-55p5p5p5-44p4p4p4-44p4p4p4-44p4p4p4-5-5-4-2-----|
A|22p2p2p2-44p4p4p4-55p5p5p5-44p4p4p4----------44p4p4p4-5-5-4-2-----|
E|------------------------------------------------------------- X 2-|


Chorus:

1.15
(Main riff)
e|-------------------------------------------------|
B|-------------------------------------------------|
G|---------------------------4-4440p2-0---020------|
D|-------------------------------------4-4---4022--|
A|55------5-754-----4574---------------------------|
E|----77-------577-7----577------------------------| X2

End with:

e|---------|
B|---------|
G|-020-----|
D|4---4022-|
A|---------|
E|---------|

Verse:

1.35
e|------------------------------------------------------------------|
B|------------------------------------------------------------------|
G|------------------------------------44p4p4p4----------------------|
D|22p2p2p2-44p4p4p4-55p5p5p5-44p4p4p4-44p4p4p4-44p4p4p4-5-5-4-2-----|
A|22p2p2p2-44p4p4p4-55p5p5p5-44p4p4p4----------44p4p4p4-5-5-4-2-----|
E|------------------------------------------------------------- X 2-|

Bridge:

1.49
e|------------------------------------------------|
B|------------------------------------------------|
G|------------------------------------------------|
D|555555555555000000000000222222222222222222222222
A|555555555555000000000000222222222222222222222222
E|------------------------------------------------ X 3
[ Tab from: http://www.guitaretab.com/s/svartsot/109787.html ]
End the last time with:
e|-----
B|-----
G|-----
D|2-2-2
A|2-2-2
E|-----

Chorus:

2.13
(Main riff)
e|-------------------------------------------------|
B|-------------------------------------------------|
G|---------------------------4-4440p2-0---020------|
D|-------------------------------------4-4---4022--|
A|55------5-754-----4574---------------------------|
E|----77-------577-7----577------------------------| X2

End with:
e|---------|
B|---------|
G|-020-----|
D|4---4022-|
A|---------|
E|---------|

Verse:

2.32
e|------------------------------------------------------------------|
B|------------------------------------------------------------------|
G|------------------------------------44p4p4p4----------------------|
D|22p2p2p2-44p4p4p4-55p5p5p5-44p4p4p4-44p4p4p4-44p4p4p4-5-5-4-2-----|
A|22p2p2p2-44p4p4p4-55p5p5p5-44p4p4p4----------44p4p4p4-5-5-4-2-----|
E|------------------------------------------------------------- X 2-|

Solo:

2.50:
e|--------------------------------------------------|
B|--------------------------------------------------|
G|--------------------------------------------------|
D|-----------------420---------------42020----------|
A|2-4540242-02-4540---4--02-45420242------40242-----|
E|--------------------------------------------- X 4-|

3.20
e|---------------------------------------------------|
B|-------------------20---------------20-0-----------|
G|---121---1-----1212--21----121---1----2-2121-------|
D|24----424-4-24----------24----424-4---------24-----|
A|---------------------------------------------------|
E|---------------------------------------------- X 2-|

Verse:

3.37
e|------------------------------------------------------------------|
B|------------------------------------------------------------------|
G|------------------------------------44p4p4p4----------------------|
D|22p2p2p2-44p4p4p4-55p5p5p5-44p4p4p4-44p4p4p4-44p4p4p4-5-5-4-2-----|
A|22p2p2p2-44p4p4p4-55p5p5p5-44p4p4p4----------44p4p4p4-5-5-4-2-----|
E|------------------------------------------------------------- X 4-|

Chorus:

4.08
(Main riff)
e|-------------------------------------------------|
B|-------------------------------------------------|
G|---------------------------4-4440p2-0---020------|
D|-------------------------------------4-4---4022--|
A|55------5-754-----4574---------------------------|
E|----77-------577-7----577------------------------| X2

Last time, cut the last 2 on the D-string and play this:

4.26
e|---------------------|
B|---------------------|
G|4-4440p2-0--020------|
D|----------4----4022--|
A|---------------------|


That's how I play it, and I thinks it's okay... I'm not sure about the bridge, but I 
the rest sounds as it's supposed to..

It's my first tab so please don't be too critic:P

Enjoy!

http://www.svartsot.dk/
Related for Gravollet tab