Song name
# A B C D E F G H I J K L M N O P Q R S T U V W X Y Z

Sven-ingvars - Frken Frken chords

Highlighted       Show chord diagrams
This is a Swedish song, written and recorded by the swedish singer/songwriter
Thore Skogman in 1963,
but made famous by the swedish group Sven-Ingvars in 1964.
Their official website is www.sven-ingvars.se

(A)               (D)
Jag har sett miss Grekland,
(A)               (E)
Jag har sett miss Kina,
(A)         (D)             (A)    (B)     (E)
Nastan alla varldens vackra misser har jag mott,
(A)          (D)
O jag tyckte alla,
(A)         (E)
Skona var o fina,
(A)         (D)                    (A)   (B)    (E)
Men nar jag kom hem till Varmland, motte jag en varmlandsjanta,
(A)          (D)           (A) (B)       (E)
o hon ar for mig det allra sotaste bland sott,


                  (A)     (D)
Lilla sota froken fraken, ifran Fryken,
          (A)
blev miss Varmland, nu i ar,
     (E)
alla Varmlands pulsar slar,
        (A)          (E)
nar hon genom staden gar,
                  (A)     (D)
lilla sota froken fraken, ifran Fryken,
       (A)
Hon ar blond som angens ra,
         (E)                     (A) (D) (E)
vackrast utav alla flickorna jag sag,


(A)                   (D)
Hon ger bilden av det skona varmeland,
             (A)
o hon passar ej vid medelhavets strand,
               (E)                     (A)
hon me sjoarna o skogarna, vill vandra hand i hand,
                   (D)
O som Karlstadsola skiner hon sa glatt,
                      (A)
O hon lockar oss till karleksfulla skratt,
                   (E)              (A)
Hon ar den som jag beundrar mest, o ni ska veta att,


                  (A)     (D)
Lilla sota froken fraken, ifran Fryken,
       (A)
Hon ar blond som angens ra,
         (E)                     (A) (D) (E)
vackrast utav alla flickorna jag sag,

"Solo":

e---------------------------------------------------------------------|
B---------------------------------------------------------------------|
G-----------------------6---------------7------7--9--7--6--6----------|
D-------------------------------------------------------------7-------|
A--5--5--7--9--7--6--7---------7--8--9---------------------------7----|
E---------------------------------------------------------------------|

----------------------------------------------------------------------|
----------------------------------------------------------------------|
--6--7--6--------------7----------------------------------------------|
-----------9--9--6--------9--6--7-------------------------------------|
--------------------7-------------------------------------------------|
-----------------------------------7--9--5--7-------------------------|

(A)                   (D)
Hon ger bilden av det skona varmeland,
             (A)
o hon passar ej vid medelhavets strand,
               (E)                     (A)
hon me sjoarna o skogarna, vill vandra hand i hand,
                   (D)
O som Karlstadsola skiner hon sa glatt,
                      (A)
O hon lockar oss till karleksfulla skratt,
                   (E)              (A)
Hon ar den som jag beundrar mest, o ni ska veta att,

                  (A)     (D)
Lilla sota froken fraken, ifran Fryken,
       (A)
Hon ar blond som angens ra,
         (E)                     (A) (D) (A)
vackrast utav alla flickorna jag sag,
Tap to rate this tab
# A B C D E F G H I J K L M N O P Q R S T U V W X Y Z