Song name
# A B C D E F G H I J K L M N O P Q R S T U V W X Y Z

Svenska Akademien - Falsk Matematik tab

Artist: Svenska Akademien
Låt: Falsk Matematik
Hemsida: http://www.svenskaakademien.just.nu/


Standard Tuning


"Palm muting"(dämpa strängarna) genom hela låten!!!!!



Intro: (är inte helt säker på introt men det låter nästan rätt tycker jag)
e|------------|
B|------------|
G|------------|
D|----0h2-----|  (x4)
A|------------|
E|------------|

Main-riff:
e|-----------------------------------------|
B|-----------------------------------------|
G|--------------2-2------------------------|
D|--0-2-3-2-0-0------0-2-3-2-0-------------|
A|-----------------------------0-0-3-3-----|
E|-----------------------------------------|
Tap to rate this tab
# A B C D E F G H I J K L M N O P Q R S T U V W X Y Z