Song name
# A B C D E F G H I J K L M N O P Q R S T U V W X Y Z

Swahili Blonde - Elixor Fixor tab

http://en.m.wikipedia.org/wiki/Swahili_Blonde
LINK TO WEBSITE.
Artist: Swahili Blonde
Album: Man Meat
Song: Elixor Fixor
Tabbed By: Frazer H. (frazer.hughes@gmail.com)

If you have any corrections or anything please leave a comment or email me!
Enjoy!

  0:20 not 100% sure on this little part
e|------------|
B|------------|
G|------------|
D|----0-------| X6
A|-0-----0----|
E|----------0-|

  0:29 this is the dissonant sounding chord (i think)
  C#dim                                  starts at 0:36
e|------------|                   e|--------------10-12-10-|      --------10-12--|
B|-8--8--8--8-|etc.               B|-10-12--10-12----------|x4    --10-12--------| x2
G|-9--9--9--9-|and over this      G|-----------------------|then  ---------------|
D|-11-11-11-11|is the main riff   D|-----------------------|      ---------------|
A|------------|                   A|-----------------------|      ---------------|
E|------------|                   E|-----------------------|      ---------------|

  2:32 quietly, with tone knob rolled down
e|-------------------------------------------|
B|-------------------------------------------| x4
G|-11p9h11p911----------11p9h11p911----------|
D|------------------9------------------9-12--|
A|-------------9-12-----------------12-------|
E|-------------------------------------------|

   2:46
e|-------------------------|
B|-------------------------|
G|-------------------------|
D|-------------------------| x4
A|-7--9--12-9-12-9-12-9-7--|
E|-------------------------|

Those are all the guitar parts as far as i can tell, just listen
to the song and play each little piece/riff where it applies, any
corrections please submit them or comment or whatever. I am going
with the assumption that the song (or atleast the guitar parts)
are in B minor and more or less in the 2nd postion pentatonic which is
e|-----10--12--|
B|-----10--12--|
G|---9---11----|
D|---9-----12--|
A|---9-----12--|
E|----10---12--|
Tap to rate this tab
# A B C D E F G H I J K L M N O P Q R S T U V W X Y Z