Song name
# A B C D E F G H I J K L M N O P Q R S T U V W X Y Z

Swallow The Sun - Swallow Horror Part 1 tab

#----------------------------------PLEASE NOTE---------------------------------#
#This file is the author's own work and represents their interpretation of the #
#song. You may only use this file for private study, scholarship, or research. #
#------------------------------------------------------------------------------#

SWALLOW (HORROR PT.1)
As recorded by Swallow The Sun
(From the 2003 Album THE MORNING NEVER CAME)

Transcribed by Danny Heater
Transferred to tab by Jerry Brown jr.
Blackritual0@yahoo.com
	

Words and Music by Juha Raivio

Gtr I (C G C F A D) - 'Untitled'
Gtr II (C G C F A D) - 'Untitled'
Gtr III (C G C F A D) - 'Untitled'

   Intro
    Q=70
    N.C.
   4/4
    Gtrs I, II
    E E  E E  E  E E E    S  S  E  +E.  S  S S  E  +Q
||---------------------|--------------------------------|
||o--------------------|--------------------------------|
||---------------------|--------------------------------|
||------10----9----7-9-|--9h10-10-(10)-10-10p9----------|
||o---7----7-----7-----|-----------------------10-(10)--|
||--7------------------|--------------------------------|
|
|   Gtr III
|   H         H           H                Q        Q
||---------------------|-------------------3-------(3)--|
||o--------------------|-10----------------5-------(5)--|
||--9--------(9)-------|-10----------------5--------4---|
||--7------------------|--------------------------------|
||o-0---------7--------|--8----------------3--------2---|
||---------------------|--------------------------------|


  E E  E E  E  E E E    S  S  E  +E.  S  S S  E  +Q
|--------------------|--------------------------------|
|--------------------|--------------------------------|
|--------------------|--------------------------------|
|-----10----9----7-9-|--9h10-10-(10)-10-10p9----------|
|---7----7-----7-----|-----------------------10-(10)--|
|-7------------------|--------------------------------|
|
| H         H           H                Q        Q
|--------------------|-------------------3-------(3)--|
|--------------------|-10----------------5-------(5)--|
|-9--------(9)-------|-10----------------5--------4---|
|-7------------------|--------------------------------|
|-0---------7--------|--8----------------3--------2---|
|--------------------|--------------------------------|


  Gtr II
  E E  E E  E  E  E E    S  S  E  +E.  S  S S  E  +Q
|---------------------|--------------------------------|
|---------------------|--------------------------------|
|---------------------|--------------------------------|
|-----10----9-----7-9-|--9h10-10-(10)-10-10p9----------|
|---7----7-----7------|-----------------------10-(10)--|
|-7-------------------|--------------------------------|
|
| Gtr I
| E E  E E  E  E  E E    S  S  E  +E.  S  S S  E  +Q
|---------------------|--------------------------------|
|---------------------|--------------------------------|
|------9----7-------7-|--7h=9--9--(9)--9--9p7----------|
|----------------10---|------------------------9--(9)--|
|---7----7-----7------|--------------------------------|
|-7-------------------|--------------------------------|
|
| Gtr III
| H         H            H                Q        Q
|---------------------|-------------------3-------(3)--|
|---------------------|-10----------------5-------(5)--|
|-9--------(9)--------|-10----------------5--------4---|
|-7-------------------|--------------------------------|
|-0---------7---------|--8----------------3--------2---|
|---------------------|--------------------------------|


  E E  E E  E  E  E E    S  S  E  +E.  S  S S  E  +Q
|---------------------|--------------------------------||
|---------------------|--------------------------------||
|---------------------|--------------------------------||
|-----10----9-----7-9-|--9h10-10-(10)-10-10p9----------||
|---7----7-----7------|-----------------------10-(10)--||
|-7-------------------|--------------------------------||
|
| E E  E E  E  E  E E    S  S  E  +E.  S  S S  E  +Q
|---------------------|--------------------------------||
|---------------------|--------------------------------||
|------9----7-------7-|--7h=9--9--(9)--9--9p7----------||
|----------------10---|------------------------9--(9)--||
|---7----7-----7------|--------------------------------||
|-7-------------------|--------------------------------||
|
| H         H            H                Q        Q
|---------------------|-------------------3-------(3)--||
|---------------------|-10----------------5-------(5)--||
|-9--------(9)--------|-10----------------5--------4---||
|-7-------------------|--------------------------------||
|-0---------7---------|--8----------------3--------2---||
|---------------------|--------------------------------||


 Verse
  D5       E5           F5         B5
   E E E Q      E E E    +E  E E Q      E E E
|------0----------0---|--------0--------------|
|--3-----3----------3-|--(3)-----3--------3-3-|
|----2----------2-----|------2----------2-----|
|---------------------|-----------------------|
|---------------------|-----------------------|
|---------------------|-----------------------|
|
|  H         H            H          H
|---------------------|-----------------------|
|---------------------|-----------------------|
|---------------------|--------------4--------|
|--0---------2--------|---3----------4--------|
|--0---------2--------|---3----------2--------|
|--0---------2--------|---3-------------------|
|
|  H        +H           +H         +H
|-10-------(10)-------|-(10)-------(10)-------|
|--3---------5--------|---6---------12--------|
|---------------------|-----------------------|
|--0---------2--------|---3----------9--------|
|---------------------|-----------------------|
|---------------------|-----------------------|
   H         H            H          H


  A5         B5         C5
   +E  E E Q    E E E   +E  E E E +H
|--------0----------0-|-(0)---0----------|
|--(3)-----3------3---|---------3-(3)----|
|------2--------2-----|-----2------------|
|---------------------|------------------|
|---------------------|------------------|
|---------------------|------------------|
|
|   H         H          W
|---------------------|------------------|
|---------------------|------------------|
|---2---------4-------|--5---------------|
|---2---------4-------|--5---------------|
|---0---------2-------|--3---------------|
|---------------------|------------------|
|
|  +H         H          W
|-(10)----------------|-12---------------|
|--10--------12-------|-13---------------|
|---------------------|-14---------------|
|---7---------9-------|-10---------------|
|---------------------|------------------|
|---------------------|------------------|
    H         H


  D5       E5           F5         B5
   E E E Q      E E E    +E  E E Q      E E E
|------0----------0---|--------0--------------|
|--3-----3----------3-|--(3)-----3--------3-3-|
|----2----------2-----|------2----------2-----|
|---------------------|-----------------------|
|---------------------|-----------------------|
|---------------------|-----------------------|
|
|  H         H            H          H
|---------------------|-----------------------|
|---------------------|-----------------------|
|---------------------|--------------4--------|
|--0---------2--------|---3----------4--------|
|--0---------2--------|---3----------2--------|
|--0---------2--------|---3-------------------|
|
|  H        +H           +H         +H
|-10-------(10)-------|-(10)-------(10)-------|
|--3---------5--------|---6---------12--------|
|---------------------|-----------------------|
|--0---------2--------|---3----------9--------|
|---------------------|-----------------------|
|---------------------|-----------------------|
   H         H            H          H


                                1.                  2.
  A5         B5         C5                            N.C.
   +E  E E Q    E E E   +E  E E E +H          E E E E H
|--------0----------0-|-(0)---0-----------||--0---0-----------||
|--(3)-----3------3---|---------3-(3)----o||--------3---------||
|------2--------2-----|-----2-------------||----2-------------||
|---------------------|-------------------||------------------||
|---------------------|------------------o||------------------||
|---------------------|-------------------||------------------||
|
|   H         H          W                    H       E E E E
|---------------------|-------------------||------------------||
|---------------------|------------------o||------------------||
|---2---------4-------|--5----------------||--5---------------||
|---2---------4-------|--5----------------||--5-----------2-3-||
|---0---------2-------|--3---------------o||--3-------0-1-----||
|---------------------|-------------------||------------------||
|
|  +H         H          W                    W
|-(10)----------------|-12----------------||-12---------------||
|--10--------12-------|-13---------------o||-13---------------||
|---------------------|-14----------------||-14---------------||
|---7---------9-------|-10----------------||-10---------------||
|---------------------|------------------o||------------------||
|---------------------|-------------------||------------------||
    H         H


   horus
    D5
    S S S S S S S S S S S S S S S S   S S S S S S S S S S S S S S S S
||--5-5-------------5-5-------------|-5-5-------------5-5--------------|
||o-----5-5-6-6---------5-5-6-6-----|-----5-5-6-6---------5-5-6-6------|
||--------------7-7-------------7-7-|-------------7-7-------------7-7--|
||----------------------------------|----------------------------------|
||o---------------------------------|----------------------------------|
||----------------------------------|----------------------------------|
|
|   H               H                 H               H
||----------------------------------|----------------------------------|
||o---------------------------------|----------------------------------|
||----------------------------------|----------------------------------|
||--0---------------0---------------|-0---------------0----------------|
||o-0---------------0---------------|-0---------------0----------------|
||--0---------------0---------------|-0---------------0----------------|
|
|   W                                 W
||--5-------------------------------|-5--------------------------------|
||o-3-------------------------------|-3--------------------------------|
||--2-------------------------------|-2--------------------------------|
||--0-------------------------------|-0--------------------------------|
||o-0-------------------------------|-0--------------------------------|
||----------------------------------|----------------------------------|


  F5
  S S S S  S  S S S  S  S S S  S  S S S
|---------------------------------------|
|-5-5----------------5--5---------------|
|----------7--7----------------7--7-----|
|-----7-7-------7-7-------7-7-------7-7-|
|---------------------------------------|
|---------------------------------------|
|
|     PM|       PM|       PM|       PM|
| S S S S  S  S S S  S  S S S  S  S S S
|---------------------------------------|
|---------------------------------------|
|---------------------------------------|
|-3-3------3--3------3--3------3--3-----|
|-3-3------3--3------3--3------3--3-----|
|-3-3-3-3--3--3-3-3--3--3-3-3--3--3-3-3-|
|
| Q        Q         Q         Q
|-5-------(5)-------(5)-------(5)-------|
|-5--------3---------5---------3--------|
|---------------------------------------|
|-3--------3---------3---------3--------|
|---------------------------------------|
|---------------------------------------|


  S S S S  S  S S S  S  S S S  S  S S S
|----------------------------------------||
|-5-5----------------5--5---------------o||
|----------7--7----------------7--7------||
|-----7-7-------7-7-------7-7-------7-7--||
|---------------------------------------o||
|----------------------------------------||
|
|     PM|       PM|       PM|       PM|
| S S S S  S  S S S  S  S S S  S  S S S
|----------------------------------------||
|---------------------------------------o||
|----------------------------------------||
|-3-3------3--3------3--3------3--3------||
|-3-3------3--3------3--3------3--3-----o||
|-3-3-3-3--3--3-3-3--3--3-3-3--3--3-3-3--||
|
| Q        Q         Q         Q
|-5-------(5)-------(5)-------(5)--------||
|-5--------3---------5---------3--------o||
|----------------------------------------||
|-3--------3---------3---------3---------||
|---------------------------------------o||
|----------------------------------------||


   Verse
    D5          Eb5 D5                C5          Eb5 D5
        PM----|         PM--------|       PM----|         PM--------|
    S S S S S S S S S S S S S S S S   S S S S S S S S S S S S S S S S
||----------------------------------|----------------------------------|
||o---------------------------------|----------------------------------|
||----------------------------------|-5-5------------------------------|
||--0-0---------1-1-0-0-------------|-5-5---------1-1-0-0--------------|
||o-0-0---------1-1-0-0-------------|-3-3---------1-1-0-0--------------|
||--0-0-0-0-0-0-1-1-0-0-0-0-0-0-0-0-|-----0-0-0-0-1-1-0-0-0-0-0-0-0-0--|
|
|       PM----|         PM--------|       PM----|         PM--------|
|   S S S S S S S S S S S S S S S S   S S S S S S S S S S S S S S S S
||----------------------------------|----------------------------------|
||o---------------------------------|----------------------------------|
||----------------------------------|-5-5------------------------------|
||--0-0---------8-8-7-7-------------|-5-5---------8-8-7-7--------------|
||o-0-0---------6-6-5-5-------------|-3-3---------6-6-5-5--------------|
||--0-0-0-0-0-0-8-8-7-7-0-0-0-0-0-0-|-----0-0-0-0-8-8-7-7-0-0-0-0-0-0--|


  C5          Eb5 D5                C5          Eb5 D5
      PM----|         PM--------|       PM----|         PM--------|
  S S S S S S S S S S S S S S S S   S S S S S S S S S S S S S S S S
|---------------------------------|---------------------------------|
|---------------------------------|---------------------------------|
|-5-5-----------------------------|-5-5-----------------------------|
|-5-5---------1-1-0-0-------------|-5-5---------1-1-0-0-------------|
|-3-3---------1-1-0-0-------------|-3-3---------1-1-0-0-------------|
|-----0-0-0-0-1-1-0-0-0-0-0-0-0-0-|-----0-0-0-0-1-1-0-0-0-0-0-0-0-0-|
|
|     PM----|         PM--------|       PM----|         PM--------|
| S S S S S S S S S S S S S S S S   S S S S S S S S S S S S S S S S
|---------------------------------|---------------------------------|
|---------------------------------|---------------------------------|
|-5-5-----------------------------|-5-5-----------------------------|
|-5-5---------8-8-7-7-------------|-5-5---------8-8-7-7-------------|
|-3-3---------6-6-5-5-------------|-3-3---------6-6-5-5-------------|
|-----0-0-0-0-8-8-7-7-0-0-0-0-0-0-|-----0-0-0-0-8-8-7-7-0-0-0-0-0-0-|


  1.,2.,3.
  D5  N.C.
  PM|
  S S H..         W     4x
|---------------|-------||
|---------------|------o||
|---------------|-------||
|-0-0-----------|-------||
|-0-0-----------|------o||
|-0-0-----------|-------||
|
| PM|
| S S H..         W     4x
|---------------|-------||
|---------------|------o||
|---------------|-------||
|-0-0-----------|-------||
|-0-0-----------|------o||
|-0-0-----------|-------||


   Interlude
    4.
    Dm                                 C#m
     S S S S S S S S S S S S S S S S    S S S S S S S S S S S S S S S S
||-----------------------------------|-----------------------------------|
||o--6-6-6-------------------6-6-----|--5-5-5-------------------5-5------|
||---------7-7-7-------7-7-7-----7-7-|--------6-6-6-------6-6-6-----6-6--|
||---------------7-7-7---------------|--------------6-6-6----------------|
||o----------------------------------|-----------------------------------|
||-----------------------------------|-----------------------------------|
|
|    S S S S S S S S S S S S S S S S    S S S S S S S S S S S S S S S S
||-----------------------------------|-----------------------------------|
||o----------------------------------|-----------------------------------|
||---7-7-7-------------------7-7-----|--6-6-6-------------------6-6------|
||---------7-7-7-------7-7-7-----7-7-|--------6-6-6-------6-6-6-----6-6--|
||o--------------5-5-5---------------|--------------4-4-4----------------|
||-----------------------------------|-----------------------------------|
|
|   Gtr III
|    W                                  W
||--13-------------------------------|-12--------------------------------|
||o-10-------------------------------|--9--------------------------------|
||--10-------------------------------|--9--------------------------------|
||--12-------------------------------|-11--------------------------------|
||o-12-------------------------------|-11--------------------------------|
||-----------------------------------|-----------------------------------|


  Fm
   S  S  S  S  S  S  S  S  S  S  S  S  S  S  S  S
|-------------------------------------------------|
|--9--9--9-----------------------------9--9-------|
|----------10-10-10----------10-10-10-------10-10-|
|-------------------10-10-10----------------------|
|-------------------------------------------------|
|-------------------------------------------------|
|
|  S  S  S  S  S  S  S  S  S  S  S  S  S  S  S  S
|-------------------------------------------------|
|-------------------------------------------------|
|-10-10-10----------------------------10-10-------|
|----------10-10-10----------10-10-10-------10-10-|
|--------------------8--8--8----------------------|
|-------------------------------------------------|
|
|  W
|-16----------------------------------------------|
|-13----------------------------------------------|
|-13----------------------------------------------|
|-15----------------------------------------------|
|-15----------------------------------------------|
|-------------------------------------------------|


  Bm
   S S S S S S S S S S S S S S S S
|-----------------------------------||
|--3-3-3-------------------3-3-----o||
|--------4-4-4-------4-4-4-----4-4--||
|--------------4-4-4----------------||
|----------------------------------o||
|-----------------------------------||
|
|  S S S S S S S S S S S S S S S S
|-----------------------------------||
|----------------------------------o||
|--4-4-4-------------------4-4------||
|--------4-4-4-------4-4-4-----4-4--||
|--------------2-2-2---------------o||
|-----------------------------------||
|
|  W
|-10--------------------------------||
|--7-------------------------------o||
|--7--------------------------------||
|--9--------------------------------||
|--9-------------------------------o||
|-----------------------------------||


  E5 F5          G5             E5         F5
   S  S  Q.    S  S   Q.      S S  Q.    S  S  Q.
|--------------------------|------------------------|
|--------------------------|------------------------|
|--9h10-10----10h12--12----|-12p9--9-----9h10-10----|
|--------------------------|------------------------|
|--7--8-(8)----8-10-(10)---|-10-7-(7)----7--8-(8)---|
|--------------------------|------------------------|
|
|  S  S +Q.    S  S  +Q.      S S +Q.    S  S +Q.
|--------------------------|------------------------|
|--------------------------|------------------------|
|--------------------------|------------------------|
|--2--3-(3)----3--5--(5)---|--5-2-(2)----2--3-(3)---|
|--2--3-(3)----3--5--(5)---|--5-2-(2)----2--3-(3)---|
|--2--3-(3)----3--5--(5)---|--5-2-(2)----2--3-(3)---|
|
|  H           H              H          H
|-10----------10-----------|-10---------10----------|
|--6-----------8-----------|--5----------6----------|
|--------------------------|------------------------|
|--3-----------5-----------|--2----------3----------|
|--------------------------|------------------------|
|--------------------------|------------------------|


  E5 F5          G5             E5         Eb5/Bb
   S  S  Q.    S  S   Q.      S S  Q.    S S  Q.
|--------------------------|------------------------||
|--------------------------|------------------------||
|--9h10-10----10h12--12----|-12p9--9-----9----------||
|--------------------------|---------------8--8-----||
|--7--8-(8)----8-10-(10)---|-10-7-(7)----7----------||
|--------------------------|---------------8-(8)----||
|
|  S  S +Q.    S  S  +Q.      S S +Q.    S S +Q.
|--------------------------|------------------------||
|--------------------------|------------------------||
|--------------------------|------------------------||
|--2--3-(3)----3--5--(5)---|--5-2-(2)----2-1-(1)----||
|--2--3-(3)----3--5--(5)---|--5-2-(2)----2-1-(1)----||
|--2--3-(3)----3--5--(5)---|--5-2-(2)----2----------||
|
|  H           H              H          H
|-10----------10-----------|-10---------10----------||
|--6-----------8-----------|--5---------11----------||
|--------------------------|------------------------||
|--3-----------5-----------|--2----------8----------||
|--------------------------|------------------------||
|--------------------------|------------------------||


   Chorus
    D5
    S S S S S S S S S S S S S S S S   S S S S S S S S S S S S S S S S
||--5-5-------------5-5-------------|-5-5-------------5-5--------------|
||o-----5-5-6-6---------5-5-6-6-----|-----5-5-6-6---------5-5-6-6------|
||--------------7-7-------------7-7-|-------------7-7-------------7-7--|
||----------------------------------|----------------------------------|
||o---------------------------------|----------------------------------|
||----------------------------------|----------------------------------|
|
|   H               H                 H               H
||----------------------------------|----------------------------------|
||o---------------------------------|----------------------------------|
||----------------------------------|----------------------------------|
||--0---------------0---------------|-0---------------0----------------|
||o-0---------------0---------------|-0---------------0----------------|
||--0---------------0---------------|-0---------------0----------------|
|
|   W                                 W
||--5-------------------------------|-5--------------------------------|
||o-3-------------------------------|-3--------------------------------|
||--2-------------------------------|-2--------------------------------|
||--0-------------------------------|-0--------------------------------|
||o-0-------------------------------|-0--------------------------------|
||----------------------------------|----------------------------------|


  F5
  S S S S  S  S S S  S  S S S  S  S S S
|---------------------------------------|
|-5-5----------------5--5---------------|
|----------7--7----------------7--7-----|
|-----7-7-------7-7-------7-7-------7-7-|
|---------------------------------------|
|---------------------------------------|
|
|     PM|       PM|       PM|       PM|
| S S S S  S  S S S  S  S S S  S  S S S
|---------------------------------------|
|---------------------------------------|
|---------------------------------------|
|-3-3------3--3------3--3------3--3-----|
|-3-3------3--3------3--3------3--3-----|
|-3-3-3-3--3--3-3-3--3--3-3-3--3--3-3-3-|
|
| Q        Q         Q         Q
|-5-------(5)-------(5)-------(5)-------|
|-5--------3---------5---------3--------|
|---------------------------------------|
|-3--------3---------3---------3--------|
|---------------------------------------|
|---------------------------------------|


  S S S S  S  S S S  S  S S S  S  S S S
|----------------------------------------||
|-5-5----------------5--5---------------o||
|----------7--7----------------7--7------||
|-----7-7-------7-7-------7-7-------7-7--||
|---------------------------------------o||
|----------------------------------------||
|
|     PM|       PM|       PM|       PM|
| S S S S  S  S S S  S  S S S  S  S S S
|----------------------------------------||
|---------------------------------------o||
|----------------------------------------||
|-3-3------3--3------3--3------3--3------||
|-3-3------3--3------3--3------3--3-----o||
|-3-3-3-3--3--3-3-3--3--3-3-3--3--3-3-3--||
|
| Q        Q         Q         Q
|-5-------(5)-------(5)-------(5)--------||
|-5--------3---------5---------3--------o||
|----------------------------------------||
|-3--------3---------3---------3---------||
|---------------------------------------o||
|----------------------------------------||


 Outro
  D5          Eb5 D5                C5          Eb5 D5
      PM----|         PM--------|       PM----|         PM--------|
  S S S S S S S S S S S S S S S S   S S S S S S S S S S S S S S S S
|---------------------------------|---------------------------------|
|---------------------------------|---------------------------------|
|---------------------------------|-5-5-----------------------------|
|-0-0---------1-1-0-0-------------|-5-5---------1-1-0-0-------------|
|-0-0---------1-1-0-0-------------|-3-3---------1-1-0-0-------------|
|-0-0-0-0-0-0-1-1-0-0-0-0-0-0-0-0-|-----0-0-0-0-1-1-0-0-0-0-0-0-0-0-|
|
|     PM----|         PM--------|       PM----|         PM--------|
| S S S S S S S S S S S S S S S S   S S S S S S S S S S S S S S S S
|---------------------------------|---------------------------------|
|---------------------------------|---------------------------------|
|---------------------------------|-5-5-----------------------------|
|-0-0---------8-8-7-7-------------|-5-5---------8-8-7-7-------------|
|-0-0---------6-6-5-5-------------|-3-3---------6-6-5-5-------------|
|-0-0-0-0-0-0-8-8-7-7-0-0-0-0-0-0-|-----0-0-0-0-8-8-7-7-0-0-0-0-0-0-|


    C5          Eb5 D5
        PM----|         PM--------|
    S S S S S S S S S S S S S S S S
||----------------------------------|
||o---------------------------------|
||--5-5-----------------------------|
||--5-5---------1-1-0-0-------------|
||o-3-3---------1-1-0-0-------------|
||------0-0-0-0-1-1-0-0-0-0-0-0-0-0-|
|
|       PM----|         PM--------|
|   S S S S S S S S S S S S S S S S
||----------------------------------|
||o---------------------------------|
||--5-5-----------------------------|
||--5-5---------8-8-7-7-------------|
||o-3-3---------6-6-5-5-------------|
||------0-0-0-0-8-8-7-7-0-0-0-0-0-0-|


  C5          Eb5 D5                      N.C.
      PM----|         PM----------------|
  S S S S S S S S S S S S S S S S  5x S S H..
|----------------------------------||------------*|
|---------------------------------o||------------*|
|-5-5------------------------------||------------*|
|-5-5---------1-1-0-0--------------||-0-0--------*|
|-3-3---------1-1-0-0-------------o||-0-0--------*|
|-----0-0-0-0-1-1-0-0-0-0-0-0-0-0--||-0-0--------*|
|
|     PM----|         PM----------------|
| S S S S S S S S S S S S S S S S  5x S S H..
|----------------------------------||------------*|
|---------------------------------o||------------*|
|-5-5------------------------------||------------*|
|-5-5---------8-8-7-7--------------||-0-0--------*|
|-3-3---------6-6-5-5-------------o||-0-0--------*|
|-----0-0-0-0-8-8-7-7-0-0-0-0-0-0--||-0-0--------*|



Duration Legend
---------------
W - whole; H - half; Q - quarter; E - 8th; S - 16th; T - 32nd; X - 64th; a - acciaccatura
+ - note tied to previous; . - note dotted; .. - note double dotted
Uncapitalized letters represent notes that are staccato (1/2 duration)
Irregular groupings are notated above the duration line
Duration letters will always appear directly above the note/fret number it represents the
duration for.  Duration letters with no fret number below them represent rests.  Multi-
bar rests are notated in the form Wxn, where n is the number of bars to rest for.  Low
melody durations appear below the staff

Tablature Legend
----------------
 h   - hammer-on
 p   - pull-off
 b   - bend
 pb  - pre-bend
 r   - bend release (if no number after the r, then release immediately)
 /\  - slide into or out of (from/to "nowhere")
 s   - legato slide
 S   - shift slide
 - natural harmonic
[n]  - artificial harmonic
n(n) - tapped harmonic
 ~   - vibrato
 tr  - trill
 T   - tap
 TP  - trem. picking
 PM  - palm muting
\n/  - tremolo bar dip; n = amount to dip
 \n  - tremolo bar down
 n/  - tremolo bar up
/n\  - tremolo bar inverted dip
 =   - hold bend; also acts as connecting device for hammers/pulls
 <> - volume swell (louder/softer)
 x   - on rhythm slash represents muted slash
 o   - on rhythm slash represents single note slash

Misc Legend
-----------
 |  - bar
||  - double bar
||o - repeat start
o|| - repeat end
*|  - double bar (ending)
 :  - bar (freetime)
 $  - Segno
 &  - Coda
Tempo markers -  = BPM(8/16=s8/s16), where s8 = swing 8ths, s16 = swing 16ths


** Generated using Power Tab Editor by Brad Larsen: The Official Power Tab Web Site
Tap to rate this tab
# A B C D E F G H I J K L M N O P Q R S T U V W X Y Z