Song name
# A B C D E F G H I J K L M N O P Q R S T U V W X Y Z

Swallow The Sun - And Heavens Cried Blood tab

This is actually the main riff from the end of the song.


First lower:
-----------------------------------------------------------|
-----------------------------------------------------------|
---------------7------------10---------------7-9-----------|
----7-9-10-9-7------10-9-10------9-----9-10-------10-9-7---|
--7--------------------------------------------------------|
-----------------------------------------------------------|


The the same riff from higher:
-----------------------------------------------------------|
-------------------------15-------------------18-----------|
----14-16-17-16h17p16-14-------------17-16-17----16-16-----|
-14--------------------------------------------------------|
-----------------------------------------------------------|
-----------------------------------------------------------|

-----------------------------------------------------------|
---------15-17---------------------------------------------|
---16-17-------17-16-14------------------------------------|
------------------------14---------------------------------|
-----------------------------------------------------------|
-----------------------------------------------------------|
Tap to rate this tab
# A B C D E F G H I J K L M N O P Q R S T U V W X Y Z