Song name
# A B C D E F G H I J K L M N O P Q R S T U V W X Y Z

Swallow The Sun - Plague Of Butterflies Losing The Sunsets tab

Here are some bits and pieces from the middle song of the EP Plague of Butterflies.
When I have time, I will tab the whole song.


Intro (acoustic):
-----5---------------6--3--|
--3-----5--3--5-6--6-------|
---------------------------|
---------------------------|
---------------------------|
---------------------------|


Intro (distorted):
---------------------------|
--18--15-------17--15------|
----------14-----------14--|
---------------------------|
---------------------------|
---------------------------|


Bridge (acoustic):
------------------------------------------------------------------------|
-------------------------10-10-10--11-11-11-11-11-11--------------------|
--7-7-7--9-9-9--10-10-10-----------------------------12-12-12-12-12-12--|
------------------------------------------------------------------------|
------------------------------------------------------------------------|
------------------------------------------------------------------------|

-----------------------------------------------------------------------------------|
--13-13-13--10-10-10--11-11-11--13-13-13--11-11-11-11-11-11-11-11-11-11-11-11------|
-----------------------------------------------------------------------------------|
-----------------------------------------------------------------------------------|
-----------------------------------------------------------------------------------|
-----------------------------------------------------------------------------------|
Tap to rate this tab
# A B C D E F G H I J K L M N O P Q R S T U V W X Y Z