Song name
# A B C D E F G H I J K L M N O P Q R S T U V W X Y Z

Swallow The Sun - These Woods Breathe Evil tab

The main riff.


-----------------------------------------------------------|
-----------------------------------------------------------|
--7--14--15/9/15/9--7--7-9-9--9-10-10--10-12-12--10-10-----|
-----------------------------------------------------------|
-----------------------------------------------------------|
-----------------------------------------------------------|

-----------------------------------------------------------|
-----------------------------------------------------------|
-10--14--15/9/15/9--7--7-9-9--9-10-10--10-12-12--15-15-14--|
-----------------------------------------------------------|
-----------------------------------------------------------|
-----------------------------------------------------------|

-----------------------------------------------------------|
------17-17h18p17-----17-----------------------------------|
--14--------------15-----15--12-14-------------------------|
-----------------------------------------------------------|
-----------------------------------------------------------|
-----------------------------------------------------------|

-----------------------------------------------------------|
-----------------------------------------------------------|
--12-14-14--14-15-15--15-17-17--17-15-15-14----------------|
-----------------------------------------------------------|
-----------------------------------------------------------|
-----------------------------------------------------------|
Tap to rate this tab
# A B C D E F G H I J K L M N O P Q R S T U V W X Y Z