Song name
# A B C D E F G H I J K L M N O P Q R S T U V W X Y Z

Swallow The Sun - New Moon tab

-------------------------------------------------------------------------------
                          NEW MOON - Swallow The Sun
-------------------------------------------------------------------------------

Tuning: Drop C

Thanks to Blackritual0 for a correction in the verse part!

Unfortunately the solo is not yet complete.
When I have enough time, I try to figure out the rest.



Intro (with lots of different effects used):
D|---8--7--5---8--7--5-----7--10--7---10--7--7---|
A|-----------------------------------------------|
F|-----------------------------------------------|
C|-----------------------------------------------|
G|-----------------------------------------------|
C|-----------------------------------------------|

D|------8--7---8--7--5---|
A|---6-------------------|
F|-----------------------|
C|-----------------------|
G|-----------------------|
C|-----------------------| (x 2)


Chorus (this is also played right after intro)
       (but then only the first bar and only x 2):
D|----------------------------|
A|----------------------------|
F|----------------------------|
C|---3------2------7------5---|
G|---3------2------7------5---|
C|---3------2------7------5---| (x 3)
  (x 16) (x 16) (x 25) (x 7)

D|--------------|
A|--------------|
F|--------------|
C|---3------2---|
G|---3------2---|
C|---3------2---|
  (x 16) (x 16)


Verse:
(first without vocals, then "Tomorrow will be worse...")
D|----------------------------|---|
A|----------------------------|---|
F|---------7-----10-----9-----|---|
C|---7------------------------|-7-|
G|---7-----5------8-----7-----|-7-|
C|---7------------------------|-7-|
              (x 4)


Before the verse continues to chorus, the first bar of intro is played.


Verse 2:
("The despair of morning sun...")
Repeat as in the first verse, but only 2 times, then solo.


Solo 1:
(02:43)
D|------------------------------------------15---13-12--12h13p12--------------------------|
A|---------------------------------------13----------------------15--13--13h15p13---------|
F|----------------------------16h17--p16------------------------------------------14-14---|
C|-----------------------14---------------------------------------------------------------|
G|---9--9-10-12--10-9/14------------------------------------------------------------------|
C|----------------------------------------------------------------------------------------|

(02:53)
D|------------------------------------------------------------------------|
A|---12b13br12-10---------------------10-----10-----12-13-10-13-12-13-----|
F|-------------------------------9--------9---------------------------9---|
C|----------------14-10-9---9-10----9-------------------------------------|
G|------------------------------------------------------------------------|
C|------------------------------------------------------------------------|

(03:03)
D|--------------------------------|
A|--------10----------------------|
F|---9-10-----10-9----------------|
C|------------------9--7--9--10---|
G|--------------------------------|
C|--------------------------------|

(03:08)
MISSING: The fast part after these notes before 03:12.
D|---------------------------------------------------------------------------|
A|---------------------------------------------------------------------------|
F|---------------------------------------------------------------------------|
C|------------12-14-12-------------------------------------------------------|
G|---12-14-15----------------------------------------------------------------|
C|---------------------------------------------------------------------------|

(03:12)
D|--------------------|
A|--------------------|
F|---16b17--br16-14---|
C|--------------------|
G|--------------------|
C|--------------------|


Background chords during solo 1:
D|--------------------------|
A|--------------------------|
F|--------------------------|
C|---7-----9-----10-----6---|
G|---7-----9-----10-----6---|
C|---7-----9-----10-----6---| (x 4)


Bridge to solo 2:
("The flames on my skin to wash all bad away...")
D|--------------------------|
A|--------------------------|
F|--------------------------|
C|---0--0-0--0-3---2---/6---|
G|---0--0-0--0-3---2---/6---|
C|---0--0-0--0-3---2---/6---| (x 2)


Solo 2:
(03:25)
MISSING: The fast part after these notes before 03:33.
D|---------------------------------------------------------------------------|
A|---------------------------------------------------------------------------|
F|---------------------------------------------------------------------------|
C|---------15--14--14--15----------------------------------------------------|
G|---12-14----------------14--15-10---12-------------------------------------|
C|---------------------------------------------------------------------------|

(03:33)
D|-----------------12--------------------------------------------------------|
A|---~13---12--15------12---13-12--------------------------------------------|
F|--------------------------------14~----------------------------------------|
C|---------------------------------------------------------------------------|
G|---------------------------------------------------------------------------|
C|---------------------------------------------------------------------------|


Background chords for solo 2 are the same as for solo 1, but only x 2 and end with G5.
After solo 2, full intro is played again, then chorus and finally, outro.


Outro:
D|---------------------------------------|-----|
A|---------------------------------------|-----|
F|---14---12---9---10---9---7---5---10---|-10\-|
C|---------------------------------------|-----|
G|---12---10---7----8---7---5---3----8---|--8\-|
C|---------------------------------------|-----|
                    (x 2)



************************************

| /   slide up
| \   slide down
| h   hammer-on
| p   pull-off
| ~   vibrato
| b   Bend
| br  Bend release

************************************
Tap to rate this tab
 
# A B C D E F G H I J K L M N O P Q R S T U V W X Y Z