Song name
# A B C D E F G H I J K L M N O P Q R S T U V W X Y Z

Swallow The Sun - Doomed To Walk The Earth tab

No regular tabs for this yet.. I am going to give you all of the parts
so that you can put it together for yourself, the song is just too
long to put in complete order, ill do my best to put the number of
times for each riff and stuff like that.. also, each rhythm part is
the backing to each lead section directly above it. I know this will
be insanely long, but its a 9 minute song..so..enjoy

Lead:
D|-----------------|--------------------|
A|-----------------|--------------------|
F|-----------------|--------------------|
C|-0~----3~--------|-0~----------3~-----|
G|-0~----3~---4----|-0~---8-8-7--3~---4-|
C|-0~----3~--------|-0~----------3~-----|
      2X                 2X

Rhythm (clean):
|-----5------------------------------|
|---5---5--------5------5--------5---|
|-7--------7---7----7--------6-------|
|------------7--------7---7----7---7-|
|------------------------------------|
|------------------------------------|
                 4X
Lead:
|------------------------------------------------------------|
|------------------------------------------------------------|
|------------------------------------------------------------|
|-12--14-15--10----12--14-15--14--17-17-17-15--12--14-15--10-|
|------------------------------------------------------------|
|------------------------------------------------------------|

Rhythm: 
|----------------------------------------------------------|
|----------------------------------------------------------|
|----------------------------------------------------------|
|---------------------------0------------------------------|
|-8---8-8---7-----8---8-8---0------------0-0----8---8-8---7|
|-8---8-8---7-----8---8-8---0------------0-0----8---8-8---7|
     pm pm           pm pm               pm        pm pm
Lead:
|---------------------------|
|---------------------------|
|---------------------------|
|--------------8-8-7--3-----|
|-3-2-0--0--0---------3---4-|
|-3-2-0--0--0---------3-----|
 (palm mute)   4X

Rhythm (clean):
|-----5------------------------------|
|---5---5--------5------5--------5---|
|-7--------7---7----7--------6-------|
|------------7--------7---7----7---7-|
|------------------------------------|
|------------------------------------|
                4X

Lead:
|------------------------------------------------------------|
|------------------------------------------------------------|
|------------------------------------------------------------|
|-12--14-15--10----12--14-15--14--17-17-17-15--12--14-15--10-|
|------------------------------------------------------------|
|------------------------------------------------------------|

Rhythm:
|----------------------------------------------------------|
|----------------------------------------------------------|
|----------------------------------------------------------|
|---------------------------0------------------------------|
|-8---8-8---7-----8---8-8---0------------0-0----8---8-8---7|
|-8---8-8---7-----8---8-8---0------------0-0----8---8-8---7|
     pm pm           pm pm              pm         pm pm
Lead:
|--------------------------------|-------------------|
|------------------6---------5---|-----6---------5---|
|----------------5---5-----------|---5---5-----------|
|-3~-----2~----------------7---7-|-------------7---7-|
|-3~-----2~----7--------7--------|-7--------7--------|
|-3~-----2~----7--------7--------|-7--------7--------|
                2X

Rhythm (clean)
|------------------------------------|-----------------|
|-----------------------6--------5---|----6--------5---|
|---1---1----0---0----5---5----------|--5---5----------|
|-----3--------2---------------7---7-|-----------7---7-|
|------------------------------------|-----------------|
|-3--------2--------7--------7-------|-7-------7-------|
                  2X

Lead:
|---------------------------|
|---------------------------|
|---------------------------|
|--------------8-8-7--3-----|
|-3-2-0--0--0---------3---4-|
|-3-2-0--0--0---------3-----|
 (palm mute)   2X

Rhythm (clean):
|-----5------------------------------|
|---5---5--------5------5--------5---|
|-7--------7---7----7--------6-------|
|------------7--------7---7----7---7-|
|------------------------------------|
|------------------------------------|
                2X

Lead:
|------------------------------------------------------------|
|------------------------------------------------------------|
|------------------------------------------------------------|
|-12--14-15--10----12--14-15--14--17-17-17-15--12--14-15--10-|
|------------------------------------------------------------|
|------------------------------------------------------------|

Rhythm:
|----------------------------------------------------------|
|----------------------------------------------------------|
|----------------------------------------------------------|
|---------------------------0------------------------------|
|-8---8-8---7-----8---8-8---0------------0-0----8---8-8---7|
|-8---8-8---7-----8---8-8---0------------0-0----8---8-8---7|
     pm pm           pm pm              pm         pm pm
Lead:
|--------------------------------|-------------------|
|------------------6---------5---|-----6---------5---|
|----------------5---5-----------|---5---5-----------|
|-3~-----2~----------------7---7-|-------------7---7-|
|-3~-----2~----7--------7--------|-7--------7--------|
|-3~-----2~----7--------7--------|-7--------7--------|
                2X

Rhythm (clean)
|------------------------------------|-----------------|
|-----------------------6--------5---|----6--------5---|
|---1---1----0---0----5---5----------|--5---5----------|
|-----3--------2---------------7---7-|-----------7---7-|
|------------------------------------|-----------------|
|-3--------2--------7--------7-------|-7-------7-------|
                  2X

Lead:
|--------------------|------------------------|
|------6---------5---|------------------------|
|----5---5-----------|------------------------|
|--------------7---7-|-6~---------------------|
|-7---------7--------|-6~---------------------|
|-7---------7--------|-6~---------------------|
        5X                (Piano) (Pick scrape)

Rhythm (clean)
|-----------------|
|----6--------5---|
|--5---5----------|
|-----------7---7-|
|-----------------|
|-7-------7-------|
       5X

Lead:
|--------------------|------------------------|
|------6---------5---|------------------------|
|----5---5-----------|------------------------|
|--------------7---7-|-6~---------------------|
|-7---------7--------|-6~---------------------|
|-7---------7--------|-6~---------------------|
        4X                (Piano) (Pick scrape)

Rhythm (clean)
|-----------------|
|----6--------5---|
|--5---5----------|
|-----------7---7-|
|-----------------|
|-7-------7-------|
       4X

Lead:
|----|
|----|
|----|
|-7~-|
|-7~-|
|-7~-|

Rhythm (clean):
|-----------------|
|----6--------5---|
|--5---5----------|
|-----------7---7-|
|-----------------|
|-7-------7-------|
       4X

Lead (LIGHT distortion):
|----------------------------------------|
|-----10-12/13/15\12------10-12/13\12\10-|
|---9-------------------9----------------|
|-7-------------------7------------------|
|----------------------------------------|
|----------------------------------------|
                  2X

Rhythm (clean):   Continues w/no lead
|-----------------|-----------------|
|----6--------5---|----6--------5---|
|--5---5----------|--5---5----------|
|-----------7---7-|-----------7---7-|
|-----------------|-----------------|
|-7-------7-------|-7-------7-------|
       4X                2X

Lead (LIGHT distortion):
|----------------------------------------|
|-----10-12/13/15\12------10-12/13\12\10-|
|---9-------------------9----------------|
|-7-------------------7------------------|
|----------------------------------------|
|----------------------------------------|
                  

Rhythm (clean):
|-----------------|
|----6--------5---|
|--5---5----------|
|-----------7---7-|
|-----------------|
|-7-------7-------|
       2X

Lead (hard to hear)(light distortion):
|--------------------|
|------6---------5---|
|----5---5-----------|
|--------------7---7-|
|--------------------|
|-7---------7--------|
        4X

Rhythm (listen for pattern):
|---------|------------------------------------|
|---------|------------------------------------|
|---------|------------------------------------|
|---------|-0-----------------0------------0-0-|
|-0-0-0-0-|-0--0-0-0-0-0-0-0--0-0-0-0--0-0-0-0-|
|-0-0-0-0-|-0--0-0-0-0-0-0-0--0-0-0-0--0-0-0-0-|   
   16X(PM)     (palm muted..)  (PM..)

Lead (heavier distortion):
|----------------------------------------|
|-----10-12/13/15\12------10-12/13\12\10-|
|---9-------------------9----------------|
|-7-------------------7------------------|
|----------------------------------------|
|----------------------------------------|
                 2X
Rhythm:
|-----------------------------------------------|
|-----------------------------------------------|
|-----------------------------------------------|
|--2~--------3~-------2~--------0~---------(7~)-|
|--0~--------3~-------0~--------0~---------(7~)-|
|------------3~-----------------0~---------(7~)-|
                 2X                 (rings into next section)

Lead (LIGHT distortion):
|----------------------------------------|
|-----10-12/13/15\12------10-12/13\12\10-|
|---9-------------------9----------------|
|-7-------------------7------------------|
|----------------------------------------|
|----------------------------------------|
                 2x

Rhythm (clean):
|-----------------|
|----6--------5---|
|--5---5----------|
|-----------7---7-|
|-----------------|
|-7-------7-------|
       4X


Lead (heavier distortion):
|----------------------------------------|
|-----10-12/13/15\12------10-12/13\12\10-|
|---9-------------------9----------------|
|-7-------------------7------------------|
|----------------------------------------|
|----------------------------------------|
                 8X

Rhythm:
|-----------------------------------------------------------------|---|
|-----------------------------------------------------------------|---|
|-2-2-2-2-2-2---------------------2-2-2-2-2-2---------------------|---|
|-2-2-2-2-2-2-3-3-3-3-3-3-3-3-3-3-2-2-2-2-2-2-0-0-0-0-0-0-0-0-0-0-|-7~|
|-0-0-0-0-0-0-3-3-3-3-3-3-3-3-3-3-0-0-0-0-0-0-0-0-0-0-0-0-0-0-0-0-|-7~|
|-------------3-3-3-3-3-3-3-3-3-3-------------0-0-0-0-0-0-0-0-0-0-|-7~|
                 8X                                           (rings in)

Lead: (w/no rhythm only w/cord ringing in 1st time)
|----------------------------------------|
|-----10-12/13/15\12------10-12/13\12\10-|
|---9-------------------9----------------|
|-7-------------------7------------------|
|----------------------------------------|
|----------------------------------------|
                 2x- (lighter distortion)
Tap to rate this tab
 
# A B C D E F G H I J K L M N O P Q R S T U V W X Y Z