Guitaretab - guitar tabs
Song name
# A B C D E F G H I J K L M N O P Q R S T U V W X Y Z

Swan Lee - Stay Tonight tab

Okay, in your database you have Swan Lee noted as an artist name (thus I get in
trouble when I write "Swan Lee" and not "Lee Swan" in the band/artist box) but
really it is a band name, the lead singer is called Pernille Rosenquist. You
should change that. Again I can refer you to swanlee.dk or swanlee.com.
-------------------------------------------------------------------------------
			     Stay Tonight - Swan Lee
-------------------------------------------------------------------------------
Tabbed by: Per Budtz-J°rgensen
Email:budtz38@hotmail.com

Tuning: EADGBe

Capo on the 2nd fret (chords relative to the capo).

Intro: 

Em  /  Em

Verse:

Em  /  G  /  Gm  /  C   F  /        x 2

Chorus:

Cmaj7  /  H7  /  Am6   F#°  /  Em   F

Solo part (verse played one whole note higher):

F#m  /  A  /  Am  /  D   G  /       x 2

_________________________________________________________

Verse
Chorus
Verse
Chorus x 2
Solo part
Chorus x 2
Ż verse
[ Tab from: http://www.guitaretab.com/s/swan-lee/27247.html ]
_________________________________________________________

  Em   G   Gm   C   F   Cmaj7   H7   Am6   F#°   F#m   A   Am   D   
e|0----3---3----0---1---0-------2----2-----2-----2-----0---0----2------------|
B|0----3---3----1---1---0-------0----1-----1-----2-----2---1----3------------|
G|0----0---3----0---2---0-------2----2-----2-----2-----2---2----2------------|
D|2----0---0----2---3---2-------1----2-----2-----4-----2---2----0------------|
A|2----2---x----3---3---3-------2----0-----x-----4-----0---0-----------------|
E|0----3---3--------1----------------------2-----2---------------------------|

Use your thumb on the F#° chord, that's right - on the deep E-string. If I can do
it with my fairy fingers, dammit, so can you! Or you could play the chord with a
loose 1st string, that would work too.

| /  slide up
| \  slide down
| h  hammer-on
| p  pull-off
| ~  vibrato
| +  harmonic
| x  Mute note
===============================================================================
Related for Stay Tonight tab